Guitar Tabs, Chords and Lyrics
Major upgrade!! After one year development the new version of Chordie is now online! Please give feedback.


Let Go of My World   Testament

 
 Eb-----------------------------|-----------12------|----------------
 Bb-----------------------------|---------------12--|----------------
 Gb-----------------------------|-------------------|----------------
 Db--8--8-----7--7-----------2--|-------------------|----------------
 Ab--8--8-----7--7-----7--5--2--|--7----------------|--7--------5----
 Eb--6--6-----5--5-----5--3--0--|-------------------|-----6--5-------

 


 . . . .


 


 whammy dive hbtd


 

 
 Eb-----------------------------|--------------|-----------|---------
 Bb-----------------------------|--------------|-----------|---------
 Gb-----------------------------|--------------|--9--9-----|---------
 Db-----------------------------|--4-----------|--9--9-----|---------
 Ab--------5--------------------|--------------|--7--7-----|--7------
 Eb--4--3-----3--0--------------|--------------|--0--0-----|---------

 


 . . .


 


 

 
 Eb-----------------------------------------------------|------------
 Bb-----------------------------------------------------|------------
 Gb-----------------------------------------------------|------------
 Db-----------------------2--------7--\--5-----4--/--5--|--2---------
 Ab--------5--------5-----2--------7--\--5-----4--/--5--|--2---------
 Eb--6--5-----4--3-----3--0--0--0--5--\--3--0--2--/--3--|--0--0------

 


 . . . . . . . . .


 


 

 
 Eb--------------------------------------------------------|---------
 Bb--------------------------------------------------------|---------
 Gb--------------------------------------------------------|---------
 Db-----8--\--7-----5--/--7--2--------7--\--5-----4--/--5--|---------
 Ab-----8--\--7-----5--/--7--2--------7--\--5-----4--/--5--|--7------
 Eb--0--6--\--5--0--3--/--5--0--0--0--5--\--3--0--2--/--3--|---------

 


 . . . . .


 


 

 
 Eb-----------------------------------------------------|------------
 Bb-----------------------------------------------------|------------
 Gb-----------------------------------------------------|------------
 Db-----------------------2--------7--\--5-----4--/--5--|--2---------
 Ab--------5--------5-----2--------7--\--5-----4--/--5--|--2---------
 Eb--6--5-----4--3-----3--0--0--0--5--\--3--0--2--/--3--|--0--0------

 


 . . . . . . . . .


 


 2 guitars


 

 
 Eb--------------------------------------------|---------------------
 Bb--------------------------------------------|---------------------
 Gb--------------------------------------------|--------------7------
 Db-----8--\--7-----5--/--7--2--2--------2--2--|-----4--5--7---------
 Ab-----8--\--7-----5--/--7--2--2--------2--2--|--7-----------5------
 Eb--0--6--\--5--0--3--/--5--0--0--------0--0--|--0--2--3--5---------

 


 . .


 


 

 
 Eb--------|---------------------------------------------------------
 Bb--------|---------------------------------------------------------
 Gb--5--4--|---------------------------------------------------------
 Db--------|--2-----2--5--/--7--8--x--x--x--8--x--7--x--5--x--7------
 Ab--3--2--|--2-----2--5--/--7--8--x--x--x--8--x--7--x--5--x--7------
 Eb--------|--0-----0--3--/--5--6--x--x--x--6--x--5--x--3--x--5------
 Eb-----------------------------------------------------|------------
 Bb-----------------------------------------------------|------------
 Gb-----------------------------------------------------|------------
 Db--2-----x--5--/--7--8--x--x--x--8--x--x--x--7--x--5--|------------
 Ab--2-----x--5--/--7--8--x--x--x--8--x--x--x--7--x--5--|------------
 Eb--0-----x--3--/--5--6--x--x--x--6--x--x--x--5--x--3--|------------

 


 


 whammy stuff


 

 
 Eb-------------------|----------------------------------------------
 Bb-------------------|----------------------------------------------
 Gb--12--------14-----|---------16p15--------15h16p15p12\11h12h14----
 Db--12--------14-----|--12h14---------------------------------------
 Ab-------------------|----------------------------------------------
 Eb-------------------|----------------------------------------------

 


 


 whammy stuff


 

 
 Eb---------------------------------|-------------------|------------
 Bb---------------------------------|-------------------|--12h14-----
 Gb--p12p11-------------------------|--12--------14-----|------------
 Db----------14p12p11--12h14p12p11--|--12--------14-----|------------
 Ab---------------------------------|-------------------|------------
 Eb---------------------------------|-------------------|------------
 Eb------------------------------------------------------------------
 Bb--p12p10--12p10--8h10p8--7h8p7-----7------------------------------
 Gb--------------------------------9-----9--7h9p7--6h7p6-----6-------
 Db-------------------------------------------------------9-----9----
 Ab------------------------------------------------------------------
 Eb------------------------------------------------------------------

 


 


 qb


 

 
 Eb------------------------------------------------------------------
 Bb------------------------------------------------------------------
 Gb------------------------------------------------------------------
 Db--7h9p7--5h7p5--------5^--------------x--x--------x--x------------
 Ab----------------7--5---------7--------x--x--5-----x--x--4---------
 Eb------------------------------------------------------------------

 


 


 qb


 

 
 Eb--------------------------------------|---------------------------
 Bb--------------------------------------|---------------------------
 Gb--------------------------------------|----------------6h7h9------
 Db---------4h5h7--5^--------------------|---------4h5h7-------------
 Ab--4h5h7----------------7-----0--5--4--|--4h5h7--------------------
 Eb--------------------------------------|---------------------------

 


 . .


 


 2qb


 

 
 Eb--------------|--------------------------------------|--10h12-----
 Bb--7h8h10p8p7--|--12^---------------------------------|------------
 Gb--------------|--12------9--------9--12--------7--6--|------------
 Db--------------|----------------9------------7--------|------------
 Ab--------------|--------------------------------------|------------
 Eb--------------|--------------------------------------|------------

 


 . . . .


 


 

 
 Eb--h14p12p10h12p10-------------------------------------------------
 Bb-------------------14p12p10---------------------------------------
 Gb-----------------------------12p11p9------------------------------
 Db--------------------------------------12p11p9---------------------
 Ab-----------------------------------------------12p10--9h10h12-----
 Eb------------------------------------------------------------------
 Eb------------------------------10h12--14-----10------------10------
 Bb--------------------10h12h14-----------------------10-------------
 Gb-----------9h11h12------------------------------------------------
 Db--9h11h12---------------------------------------------------------
 Ab------------------------------------------------------------------
 Eb------------------------------------------------------------------
 Eb---------|--------------------------------------------------------
 Bb-----12--|--12\10--x--10\8--x--8\7--7h8p7p5-------7h8p7p5---------
 Gb---------|-----------------------------------7p4-----------7------
 Db---------|--------------------------------------------------------
 Ab---------|--------------------------------------------------------
 Eb---------|--------------------------------------------------------

 


 


 whammy stuff


 

 
 Eb------------------------------------------------------------------
 Bb--5--7h8p7p5------------------------------------------------------
 Gb--------------7--(7)/9--9-----7--------6--------------------------
 Db---------------------------------9--------7-----------------------
 Ab------------------------------------------------------------------
 Eb------------------------------------------------------------------

 


 


 fb fb phbr


 

 
 Eb--12h15p12-------12------------------12---------------------------
 Bb------------15^------15p12-------12------15p12--------------------
 Gb----------------------------14^-----------------14^--12-----------
 Db---------------------------------------------------------14-------
 Ab------------------------------------------------------------------
 Eb------------------------------------------------------------------
 Eb---------|--------------------------------------------------------
 Bb--12--\--|--------------------------------------------------------
 Gb--12--\--|--------------------------------------------------------
 Db---------|--------------------------------------------------------
 Ab---------|--------------------------------------------------------
 Eb---------|--------------------------------------------------------


Important: The song above is NOT stored on the Chordie server. The original song is hosted at www.xguitar.com. Chordie works as a search engine and provides on-the-fly formatting. Chordie does not index songs against artists'/composers' will. To remove this song please click here.

This song is displayed as text-only. Transposing and tuning is only available for chordpro-songs.
Rate #2 of 3 versions

Login - add to songbook

SHARE PAGE  




You need to log in to post comments