Guitar Tabs, Chords and Lyrics
Major upgrade!! After one year development the new version of Chordie is now online! Please give feedback.


Plainsong  The Cure

"[A]i think it's da[D]rk and it looks like r[A]ain" you said
"and the wind is bl[D]owing like it's the end of the
wor[A]ld" you said "and it's so co[D]ld it's like the
cold if you were de[E]ad" and then you smil[D]ed for a second[A]
"i think i'm old and i'm feeling pain" you said
"and it's all running out like it's the end of the
world" you said "and it's so cold it's like the
cold if you were dead" and then you smiled for a second
sometimes you make me feel like i'm living at
the edge of the world like i'm living at the edge
of the world "it's just the way i smile" you said
Guitar
 
 -----------------------|------------------------|-----------------------|
 -----------------------|------------------------|-----------------------|
 --7/-9----9------7--7--|--------14----14--12/---|--7/-9----9------7--7--|
 -----------------------|------------------------|-----------------------|
 -----------------------|------------------------|-----------------------|
 -----------------------|------------------------|-----------------------|
 ------------------------|-----------------------|------------------------|
 ------------------------|-----------------------|------------------------|
 --------14----14--12/---|--7--9----9------7--7--|--------14----14--12----|
 ------------------------|-----------------------|------------------------|
 ------------------------|-----------------------|------------------------|
 ------------------------|-----------------------|------------------------|
 ----------------------------|----------------------|-----------------------|
 ----------------------------|----------------------|-----------------------|
 ------10--10--10/-12----14--|------5--5--5--7------|--7/-9----9------7--7--|
 ----------------------------|----------------------|-----------------------|
 ----------------------------|----------------------|-----------------------|
 ----------------------------|----------------------|-----------------------|
 ------------------------|-----------------------|------------------------|
 ------------------------|-----------------------|------------------------|
 --------14----14--12/---|--7/-9----9------7--7--|--------14----14--12/---|
 ------------------------|-----------------------|------------------------|
 ------------------------|-----------------------|------------------------|
 ------------------------|-----------------------|------------------------|
 -----------------------|------------------------|----------------------------|
 -----------------------|------------------------|----------------------------|
 --7--9----9------7--7--|--------14----14--12----|------10--10--10/-12----14--|
 -----------------------|------------------------|----------------------------|
 -----------------------|------------------------|----------------------------|
 -----------------------|------------------------|----------------------------|
 ----------------------|-----------------------|-----------------------|
 ----------------------|-----------------------|-----------------------|
 ------5--5--5--7------|--7/-9----9/-----0--2--|--------2/-5--5/-7--7--|
 ----------------------|-----------------------|-----------------------|
 ----------------------|-----------------------|-----------------------|
 ----------------------|-----------------------|-----------------------|
 -----------------------|-----------------------|-----------------------|
 -----------------------|-----------------------|-----------------------|
 --7/-9----9/-----0--2--|--------2/-5--5/-7--7--|--7/-9----9/-----------|
 -----------------------|-----------------------|-----------------5--7--|
 -----------------------|-----------------------|-----------------------|
 -----------------------|-----------------------|-----------------------|
 -----------------------|----------------------------|----------------------|
 -----------------------|----------------------------|----------------------|
 --------2/-5--5/-9--9--|------10--10--10/-12----14--|------5--5--5--7------|
 -----------------------|----------------------------|----------------------|
 -----------------------|----------------------------|----------------------|
 -----------------------|----------------------------|----------------------|
 ------------------|------------------|------------------|------------------|
 ------------------|------------------|------------------|------------------|
 ------------------|------------------|------------------|------------------|
 ------------------|------------------|------------------|------------------|
 ------------------|------------------|------------------|------------------|
 ------------------|------------------|------------------|------------------|
 ------------------|------------------|------------------|------------------|
 ------------------|------------------|------------------|------------------|
 ------------------|------------------|------------------|------------------|
 ------------------|------------------|------------------|------------------|
 ------------------|------------------|------------------|------------------|
 ------------------|------------------|------------------|------------------|
 ------------------|------------------|------------------|------------------|
 ------------------|------------------|------------------|------------------|
 ------------------|------------------|------------------|------------------|
 ------------------|------------------|------------------|------------------|
 ------------------|------------------|------------------|------------------|
 ------------------|------------------|------------------|------------------|
 ------------------|------------------|------------------|------------------|
 ------------------|------------------|------------------|------------------|
 ------------------|------------------|------------------|------------------|
 ------------------|------------------|------------------|------------------|
 ------------------|------------------|------------------|------------------|
 ------------------|------------------|------------------|------------------|
 ------------------|------------------|------------------|------------------|
 ------------------|------------------|------------------|------------------|
 ------------------|------------------|------------------|------------------|
 ------------------|------------------|------------------|------------------|
 ------------------|------------------|------------------|------------------|
 ------------------|------------------|------------------|------------------|
 ------------------|------------------|------------------|------------------|
 ------------------|------------------|------------------|------------------|
 ------------------|------------------|------------------|------------------|
 ------------------|------------------|------------------|------------------|
 ------------------|------------------|------------------|------------------|
 ------------------|------------------|------------------|------------------|
 -----------------------|------------------------|-----------------------|
 -----------------------|------------------------|-----------------------|
 --7/-9----9------7--7--|--------14----14--12/---|--7/-9----9------7--7--|
 -----------------------|------------------------|-----------------------|
 -----------------------|------------------------|-----------------------|
 -----------------------|------------------------|-----------------------|
 ------------------------|-----------------------|------------------------|
 ------------------------|-----------------------|------------------------|
 --------14----14--12/---|--7--9----9------7--7--|--------14----14--12----|
 ------------------------|-----------------------|------------------------|
 ------------------------|-----------------------|------------------------|
 ------------------------|-----------------------|------------------------|
 ----------------------------|----------------------|-----------------------|
 ----------------------------|----------------------|-----------------------|
 ------10--10--10/-12----14--|------5--5--5--7------|--7/-9----9------7--7--|
 ----------------------------|----------------------|-----------------------|
 ----------------------------|----------------------|-----------------------|
 ----------------------------|----------------------|-----------------------|
 ------------------------|-----------------------|------------------------|
 ------------------------|-----------------------|------------------------|
 --------14----14--12/---|--7/-9----9------7--7--|--------14----14--12/---|
 ------------------------|-----------------------|------------------------|
 ------------------------|-----------------------|------------------------|
 ------------------------|-----------------------|------------------------|
 -----------------------|------------------------|----------------------------|
 -----------------------|------------------------|----------------------------|
 --7--9----9------7--7--|--------14----14--12----|------10--10--10/-12----14--|
 -----------------------|------------------------|----------------------------|
 -----------------------|------------------------|----------------------------|
 -----------------------|------------------------|----------------------------|
 ----------------------|-----------------------|-----------------------|
 ----------------------|-----------------------|-----------------------|
 ------5--5--5--7------|--7/-9----9/-----0--2--|--------2/-5--5/-7--7--|
 ----------------------|-----------------------|-----------------------|
 ----------------------|-----------------------|-----------------------|
 ----------------------|-----------------------|-----------------------|
 -----------------------|-----------------------|-----------------------|
 -----------------------|-----------------------|-----------------------|
 --7/-9----9/-----0--2--|--------2/-5--5/-7--7--|--7/-9----9/-----------|
 -----------------------|-----------------------|-----------------5--7--|
 -----------------------|-----------------------|-----------------------|
 -----------------------|-----------------------|-----------------------|
 -----------------------|----------------------------|----------------------|
 -----------------------|----------------------------|----------------------|
 --------2/-5--5/-9--9--|------10--10--10/-12----14--|------5--5--5--7------|
 -----------------------|----------------------------|----------------------|
 -----------------------|----------------------------|----------------------|
 -----------------------|----------------------------|----------------------|
 -------------------|---------------------|---------------------|
 -------------------|---------------------|---------------------|
 --5----------------|--------5----4-------|---------------------|
 -------------------|------------------5--|--------2----3----2--|
 -------------------|---------------------|---------------------|
 -------------------|---------------------|---------------------|
 ----------------------|------------------|------------------|
 ----------------------|------------------|------------------|
 ----------------------|------------------|------------------|
 ----------------------|------------------|------------------|
 ------3----3--5----0--|------------------|------------------|
 ----------------------|------------------|------------------|
 ------------------||
 ------------------||
 ------------------||
 ------------------||
 ------------------||
 ------------------||

Keyboard
 
 E||---------8------------|----------------------|---------8------------|
 B||--------------8----6--|------6--5--6--8------|--------------8----6--|
 G||--5-------------------|----------------------|--5-------------------|
 D||----------------------|----------------------|----------------------|
 A||----------------------|----------------------|----------------------|
 E||----------------------|----------------------|----------------------|
 ----------------------|---------8------------|----------------------|
 ------6--5--6--5------|--------------8----6--|------6--5--6--8------|
 ----------------------|--5-------------------|----------------------|
 ----------------------|----------------------|----------------------|
 ----------------------|----------------------|----------------------|
 ----------------------|----------------------|----------------------|
 ----------------5--|----------------------|---------8------------|
 -------------------|----------------------|--------------8----6--|
 -------------------|------5----5--7----5--|--5-------------------|
 -------------------|----------------------|----------------------|
 -------------------|----------------------|----------------------|
 -------------------|----------------------|----------------------|
 ----------------------|---------8------------|----------------------|
 ------6--5--6--8------|--------------8----6--|------6--5--6--5------|
 ----------------------|--5-------------------|----------------------|
 ----------------------|----------------------|----------------------|
 ----------------------|----------------------|----------------------|
 ----------------------|----------------------|----------------------|
 ---------8------------|----------------------|----------------5--|
 --------------8----6--|------6--5--6--8------|-------------------|
 --5-------------------|----------------------|-------------------|
 ----------------------|----------------------|-------------------|
 ----------------------|----------------------|-------------------|
 ----------------------|----------------------|-------------------|
 ----------------------|---------------------|--------------------|
 ----------------------|--------5------------|--------------------|
 ------5----5--7----5--|---------------------|--------5----7------|
 ----------------------|-------------5----7--|--------------------|
 ----------------------|---------------------|--------------------|
 ----------------------|---------------------|--------------------|
 ----------------------|--------------------|----------------------|
 ---------5------------|--------------------|---------5------------|
 --5-------------------|--------5----7------|--5-------------------|
 --------------5----7--|--------------------|--------------5----7--|
 ----------------------|--------------------|----------------------|
 ----------------------|--------------------|----------------------|
 --------------------|-------------------5--|----------------------|
 -------------5------|------6--6----8-------|----------------------|
 --------5-----------|----------------------|------5----5--7----5--|
 --------------------|----------------------|----------------------|
 --------------------|----------------------|----------------------|
 --------------------|----------------------|----------------------|
 ---------8------------|----------------------|---------8------------|
 --------------8----6--|------6--5--6--8------|--------------8----6--|
 --5-------------------|----------------------|--5-------------------|
 ----------------------|----------------------|----------------------|
 ----------------------|----------------------|----------------------|
 ----------------------|----------------------|----------------------|
 ----------------------|---------8------------|----------------------|
 ------6--5--6--5------|--------------8----6--|------6--5--6--8------|
 ----------------------|--5-------------------|----------------------|
 ----------------------|----------------------|----------------------|
 ----------------------|----------------------|----------------------|
 ----------------------|----------------------|----------------------|
 ----------------5--|----------------------|---------8------------|
 -------------------|----------------------|--------------8----6--|
 -------------------|------5----5--7----5--|--5-------------------|
 -------------------|----------------------|----------------------|
 -------------------|----------------------|----------------------|
 -------------------|----------------------|----------------------|
 ----------------------|---------8------------|----------------------|
 ------6--5--6--8------|--------------8----6--|------6--5--6--5------|
 ----------------------|--5-------------------|----------------------|
 ----------------------|----------------------|----------------------|
 ----------------------|----------------------|----------------------|
 ----------------------|----------------------|----------------------|
 ---------8------------|----------------------|----------------5--|
 --------------8----6--|------6--5--6--8------|-------------------|
 --5-------------------|----------------------|-------------------|
 ----------------------|----------------------|-------------------|
 ----------------------|----------------------|-------------------|
 ----------------------|----------------------|-------------------|
 ----------------------|---------------------|--------------------|
 ----------------------|--------5------------|--------------------|
 ------5----5--7----5--|---------------------|--------5----7------|
 ----------------------|-------------5----7--|--------------------|
 ----------------------|---------------------|--------------------|
 ----------------------|---------------------|--------------------|
 ----------------------|--------------------|----------------------|
 ---------5------------|--------------------|---------5------------|
 --5-------------------|--------5----7------|--5-------------------|
 --------------5----7--|--------------------|--------------5----7--|
 ----------------------|--------------------|----------------------|
 ----------------------|--------------------|----------------------|
 --------------------|-------------------5--|----------------------|
 -------------5------|------6--6----8-------|----------------------|
 --------5-----------|----------------------|------5----5--7----5--|
 --------------------|----------------------|----------------------|
 --------------------|----------------------|----------------------|
 --------------------|----------------------|----------------------|
 ---------8------------|----------------------|---------8------------|
 --------------8----6--|------6--5--6--8------|--------------8----6--|
 --5-------------------|----------------------|--5-------------------|
 ----------------------|----------------------|----------------------|
 ----------------------|----------------------|----------------------|
 ----------------------|----------------------|----------------------|
 ----------------------|---------8------------|----------------------|
 ------6--5--6--5------|--------------8----6--|------6--5--6--8------|
 ----------------------|--5-------------------|----------------------|
 ----------------------|----------------------|----------------------|
 ----------------------|----------------------|----------------------|
 ----------------------|----------------------|----------------------|
 ----------------5--|----------------------|---------8------------|
 -------------------|----------------------|--------------8----6--|
 -------------------|------5----5--7----5--|--5-------------------|
 -------------------|----------------------|----------------------|
 -------------------|----------------------|----------------------|
 -------------------|----------------------|----------------------|
 ----------------------|---------8------------|----------------------|
 ------6--5--6--8------|--------------8----6--|------6--5--6--5------|
 ----------------------|--5-------------------|----------------------|
 ----------------------|----------------------|----------------------|
 ----------------------|----------------------|----------------------|
 ----------------------|----------------------|----------------------|
 ---------8------------|----------------------|----------------5--|
 --------------8----6--|------6--5--6--8------|-------------------|
 --5-------------------|----------------------|-------------------|
 ----------------------|----------------------|-------------------|
 ----------------------|----------------------|-------------------|
 ----------------------|----------------------|-------------------|
 ----------------------|---------------------|--------------------|
 ----------------------|--------5------------|--------------------|
 ------5----5--7----5--|---------------------|--------5----7------|
 ----------------------|-------------5----7--|--------------------|
 ----------------------|---------------------|--------------------|
 ----------------------|---------------------|--------------------|
 ----------------------|--------------------|----------------------|
 ---------5------------|--------------------|---------5------------|
 --5-------------------|--------5----7------|--5-------------------|
 --------------5----7--|--------------------|--------------5----7--|
 ----------------------|--------------------|----------------------|
 ----------------------|--------------------|----------------------|
 --------------------|-------------------5--|----------------------|
 -------------5------|------6--6----8-------|----------------------|
 --------5-----------|----------------------|------5----5--7----5--|
 --------------------|----------------------|----------------------|
 --------------------|----------------------|----------------------|
 --------------------|----------------------|----------------------|
 ---------8------------|----------------------|---------8------------|
 --------------8----6--|------6--5--6--8------|--------------8----6--|
 --5-------------------|----------------------|--5-------------------|
 ----------------------|----------------------|----------------------|
 ----------------------|----------------------|----------------------|
 ----------------------|----------------------|----------------------|
 ----------------------|---------8------------|----------------------|
 ------6--5--6--5------|--------------8----6--|------6--5--6--8------|
 ----------------------|--5-------------------|----------------------|
 ----------------------|----------------------|----------------------|
 ----------------------|----------------------|----------------------|
 ----------------------|----------------------|----------------------|
 ----------------5--|----------------------|---------8------------|
 -------------------|----------------------|--------------8----6--|
 -------------------|------5----5--7----5--|--5-------------------|
 -------------------|----------------------|----------------------|
 -------------------|----------------------|----------------------|
 -------------------|----------------------|----------------------|
 ----------------------|---------8------------|----------------------|
 ------6--5--6--8------|--------------8----6--|------6--5--6--5------|
 ----------------------|--5-------------------|----------------------|
 ----------------------|----------------------|----------------------|
 ----------------------|----------------------|----------------------|
 ----------------------|----------------------|----------------------|
 ---------8------------|----------------------|----------------5--|
 --------------8----6--|------6--5--6--8------|-------------------|
 --5-------------------|----------------------|-------------------|
 ----------------------|----------------------|-------------------|
 ----------------------|----------------------|-------------------|
 ----------------------|----------------------|-------------------|
 ----------------------|---------------------|--------------------|
 ----------------------|--------5------------|--------------------|
 ------5----5--7----5--|---------------------|--------5----7------|
 ----------------------|-------------5----7--|--------------------|
 ----------------------|---------------------|--------------------|
 ----------------------|---------------------|--------------------|
 ----------------------|--------------------|----------------------|
 ---------5------------|--------------------|---------5------------|
 --5-------------------|--------5----7------|--5-------------------|
 --------------5----7--|--------------------|--------------5----7--|
 ----------------------|--------------------|----------------------|
 ----------------------|--------------------|----------------------|
 --------------------|-------------------5--|----------------------|
 -------------5------|------6--6----8-------|----------------------|
 --------5-----------|----------------------|------5----5--7----5--|
 --------------------|----------------------|----------------------|
 --------------------|----------------------|----------------------|
 --------------------|----------------------|----------------------|
 --------------------|--------------------|--------------------|
 --------------------|--------------------|--------------------|
 --------------------|--9-----------------|--10----------------|
 --12----------------|--12----------------|--12----------------|
 --10----------------|--10----------------|--10----------------|
 --8-----------------|--8-----------------|--8-----------------|
 --------------------|--------------------|--8-----------------|
 --8-----------------|--12----------------|--12----------------|
 --10----------------|--10----------------|--9-----------------|
 --12----------------|--12----------------|--12----------------|
 --10----------------|--10----------------|--------------------|
 --8-----------------|--------------------|--------------------|
 ------------------||
 ------------------||
 ------------------||
 ------------------||
 ------------------||
 ------------------||


Important: The song above is NOT stored on the Chordie server. The original song is hosted at www.xguitar.com. Chordie works as a search engine and provides on-the-fly formatting. Chordie does not index songs against artists'/composers' will. To remove this song please click here.

Text color:
Chord color:
Chord grids: 
Font size:    
Page size: 

A D E
Rate #5 of 5 versions

Jango Player

Login - add to songbook

SHARE PAGE  




You need to log in to post comments