Guitar Tabs, Chords and Lyrics
Major upgrade!! After one year development the new version of Chordie is now online! Please give feedback.


In Your House   The Cure

 
 E-------------------------- | --------------------------|
 B-------------------------- | ------0-----------0-------|
 G----2-----0-----0-----0---.| -----5--5-5------4--4-4---|
 D---2-----4-----4-----4----.| ----7----7-7----6----6-6--|
 A--0---0-3---3-5---5-3---3- | --------------------------|
 E-------------------------- | --8-----------7-----------|

 


 


 Interlude


 


 

 
 E-------------------- |-------------------
 B----5---1---3---3--- |----5---1---3------
 G---2---2---2---2-2--.|---2---2---2----4--
 D------3---0---0-----.|------3---0----4---
 A--0----------------- |--0-----------2----
 E-------------------- |-------------------

 


 


 2nd Interlude ends with:


 


 

 
 E---------------------------------------------|
 B----5---1---3--------------------------------|
 G---2---2---2----4-----2----------------------|
 D------3---0----4-----2------0-----0-----0----|
 A--0-----------2---2-0---0--5-----4-----3-----|
 E--------------------------3---3-2---2-1---1--|

 


 


 the End


 


 

 
 E---------------------------------------------------------------------|
 B------0---------0---------0---------0---------0---------0------------|
 G-----5-5-5-----4-4-4-----3-3-3-----2-2-2-----1-1-1-----0-0-0-----2---|
 D----7---7-7---6---6-6---5---5-5---4---4-4---3---3-3---2---2-2---2----|
 A---------------------------------------------------------------0-----|
 E--8---------7---------6---------5---------4---------3----------------|


Important: The song above is NOT stored on the Chordie server. The original song is hosted at www.xguitar.com. Chordie works as a search engine and provides on-the-fly formatting. Chordie does not index songs against artists'/composers' will. To remove this song please click here.

This song is displayed as text-only. Transposing and tuning is only available for chordpro-songs.
Rate #3 of 3 versions

Jango Player

Login - add to songbook

SHARE PAGE  




You need to log in to post comments