Guitar Tabs, Chords and Lyrics
Major upgrade!! After one year development the new version of Chordie is now online! Please give feedback.


A Forest   The Cure

 
 e----------------------|-----------------------|---------------------------
 B----------------------|-----------------------|---------------------------
 G----------------------|-----------------------|---------------------------
 D----7----3----2----3--|-----7----3----2----3--|----7----9---10---3--------
 A--0----0----0----0----|---0----0----0----0----|--0----0---0----0----------
 E----------------------|-----------------------|---------------------------
 e--0---0-2-3-2-0---0---0-2-3-2-0----|--------------------------------------
 B----3-----------3---3-----------3--|--------------------------------------
 G-----------------------------------|--------------------------------------
 D-----------------------------------|-------7----3---2---3-----------------
 A-----------------------------------|-----0----0---0---0-------------------
 E-----------------------------------|--------------------------------------

 


 faster


 

 
 e------------------|-----------------|-------------------------------------
 B------------------|-----------------|-------------------------------------
 G------------------|-----------------|-------------------------------------
 D----7---3---2---3-|---7---3---2---3-|---7---9---10---7---5---3---2---0----
 A--0---0---0---0---|-0---0---0---0---|-0---0---0----0---0---0---0---0---0--
 E------------------|-----------------|------------------------------------0

 


 


 Throughout most of song | Then


 

 
 e-------------------------|-----------------|-----------------|
 B-------------------------|-----------------|-----------------|
 G-------------------------|-----------------|-----------------|
 D------2-2-2-2-2-2-2-2----|-4-4-4-4-4-4-4-4-|-5-5-5-5-5-5-5-5-|
 A------0-0-0-0-0-0-0-0----|-2-2-2-2-2-2-2-2-|-3-3-3-3-3-3-3-3-|
 E-------------------------|-----------------|-----------------|

 


 [1]^ [2] [3] [1]^ [2] [3] [1]^ [2] [1]^ [2] [3] [1]^ [2] [3] [1]^ [2] [1]^ [2] [3] [1]^ [2] [3] [1]^[2]


 emphasis on the #1


 

 
 e-----------------|-----------------|-----------------|-----------------|
 B-----------------|-----------------|-----------------|-----------------|
 G-----------------|-----------------|-----------------|-----------------|
 D-----------------|-5-5-5-5-5-5-5-5-|-4-4-4-4-4-4-4-4-|-5-5-5-5-5-5-5-5-|
 A-4-4-4-4-4-4-4-4-|-3-3-3-3-3-3-3-3-|-2-2-2-2-2-2-2-2-|-3-3-3-3-3-3-3-3-|
 E-2-2-2-2-2-2-2-2-|-----------------|-----------------|-----------------|

 


 [1]^ [2] [3] [1]^ [2] [3] [1]^ [2] [1]^ [2] [3] [1]^ [2] [3] [1]^ [2] [1]^ [2] [3] [1]^ [2] [3] [1]^ [2] [1]^ [2] [3] [1]^ [2] [3] [1]^ [2]


 

 
 e-----------------|-----------------|
 B-----------------|-----------------|
 G-----------------|-----------------|
 D-----------------|-----------------|
 A-4-4-4-4-4-4-4-4-|-3-3-3-3-3-3-3-3-|
 E-2-2-2-2-2-2-2-2-|-1-1-1-1-1-1-1-1-|


Important: The song above is NOT stored on the Chordie server. The original song is hosted at www.xguitar.com. Chordie works as a search engine and provides on-the-fly formatting. Chordie does not index songs against artists'/composers' will. To remove this song please click here.

This song is displayed as text-only. Transposing and tuning is only available for chordpro-songs.
Rate #4 of 12 versions

Jango Player

Login - add to songbook

SHARE PAGE  



You need to log in to post comments