Guitar Tabs, Chords and Lyrics
Major upgrade!! After one year development the new version of Chordie is now online! Please give feedback.


The Hanging Garden  The Cure

The Cure (Staring at the Sea - the Singles)
THE HANGING GARDEN - tabbed by Scott Kaiser <Kaiserboom@aol.com>
This song is basic. Once you get the bass concept, its easy. Guitar in
this song is moody and clean. For all you keyboardists, you'll need a re
verse reverb effect to be get Robert's sound. I only display the stings
that are to be played in tablature, and got close with the rhythm.
Two measures drums
BASS Intro
 
 D--0------------------------------------------|--------------------------------------0----|

BASS Prelude (played twice)
 
 D--0--0-00000---------5-5-5-5-7-7-7-7---|--0--0-00000-------------------------------|
 A----------------3-3-3----------------------|--------------------3-3-33333--------------|

GUITAR Riff 1 (played with the BASS Prelude, and randomly throughout song)
 
 G--5-5-5-5-5-5-5--4----------------------|
 D-------------------------5-5-8-----8-----|

BASS Verse 1 (BASS 1) =
 
 D--0--0-00000---------5-5-5-5-7-7-7-7----|--0--0-00000------3--3-3-3-5-5-5-5----|
 A----------------3-3-3-----------------------|-------------------------------------------|

Creature kissing in the rain
Shapeless in the dark again
In the hanging garden, please don't speak
In the hanging garden, no one sleeps
BASS (four times)
 
 D--0--0-00000-------------------------------|
 A--------------------3-3-33333------------|

GUITAR (played with the second and forth times of BASS)
 
 D--7-7-7-7-7-7-9---7--------------------|
 A-------------------------10-7-----7-----|

In the hanging garden...
Verse 2
(the bass alternates in this verse)
[B1]Catching halos on the moon
[(B2)]  
 
 D--0--0-00000---------5-5-5-5-7-7-7-7----|--0--0-00000----------------------------|
 A----------------3-3-3-----------------------|--------------------1--1-1-1-3-3-3-3----|

Gives my hands the shape of angels
[B1]In the heat of the night the animals scream
[B2]In the heat of the night, walking into a dream...
REFRAIN
BASS =
 
 D---------------------------------------------|
 A--0--0-00000---------1-1-1-1-3-3-3-3----|

Fall fall fall fall, into the walls
Jump, jump out of time
Fall fall fall fall, out of the sky
 
 G--------------------0--0-0000-2-2-2-2-2--|
 D--------------------------------------------|
 A--0--0-00000------------------------------|

Cover my face as the animals cry
BASS (four times)
 
 D--0--0-00000-------------------------------|
 A--------------------3-3-33333--------------|

In the hanging garden...
[B1]Creature kissing in the rain
[B2]Shapeless in the dark again
[B1]In a hanging garden, change the past
[B2]In a hanging garden, wearing furs and masks
REFRAIN =
Fall fall fall fall, into the walls
Jump, jump out of time
Fall fall fall fall, out of the sky
Cover my face as the aaaaanimaaaaaaa...
 
 D--3--3-33333------0--0-00000-----------|--3--3-3-55555----0--0-00000--|
 A--------------------------------------------|-----------------------------------|

aaaaaaals die... In a hanging garden...
 
 D--3--3-33333------0--0-00000-----------|--3--3-3-55555----7--7-77888--|
 A--------------------------------------------|-----------------------------------|

As the animals die... Cover my face as the animals die!
(repeat bass lines for a bit)
In the hanging garden

Important: The song above is NOT stored on the Chordie server. The original song is hosted at www.xguitar.com. Chordie works as a search engine and provides on-the-fly formatting. Chordie does not index songs against artists'/composers' will. To remove this song please click here.

Text color:
Chord color:
Chord grids: 
Font size:    
Page size: 

B2
Rate #1 of 2 versions

Login - add to songbook

SHARE PAGE  




You need to log in to post comments