Guitar Tabs, Chords and Lyrics
Major upgrade!! After one year development the new version of Chordie is now online! Please give feedback.


To Wish Impossible Things  The Cure

"To Wish Impossible Things"
 
 ---------------------------

Guitar 1:
Rhythm Fig. 1
[C#m7] [Aadd9] [C#m7]  
 
 -----------------------|--------------------|-------------------|
 -----------------------|---------------2----|-------------------|
 --------4------4-------|------4------4---4--|------4-----4------|
 ------2------2------2--|----2------2--------|----2-----2-----2--|
 ----4------4------4----|--0------0----------|--4-----4-----4----|
 -----------------------|--------------------|-------------------|

[Aadd9] [C#m7] [Aadd9]  
 
 -----------------------|--------------------|-------------------|
 ----------------2------|--------------------|--------------2----|
 --------4-----4---4----|------4-----4-------|------4-----4---4--|
 ------2-----2----------|----2-----2-----2---|----2-----2--------|
 ----0-----0------------|--4-----4-----4-----|--0-----0----------|
 -----------------------|--------------------|-------------------|

Guitar 2:
Rhythm Fig. 1a
 
 -----------------------|--------------------|-------------------|
 -----------------------|--------------------|-------------------|
 ----------444-4---4-4--|-4--2----1----------|--------444-4---4-4|
 -----------------------|--------------2-----|-------------------|
 -----------------------|--------------------|-------------------|
 -----------------------|--------------------|-------------------|
 -----------------------|--------------------|-------------------|
 -----------------------|--------------------|-------------------|
 ----4--2----1----2---1-|--------444-4---4-4-|-4--2-----1--------|
 -----------------------|--------------------|---------------2---|
 -----------------------|--------------------|-------------------|
 -----------------------|--------------------|-------------------|

Guitar 1:
Rhythm Fig. 2
[F#m7] [G#m7] [F#m7] [G#m7]  
 
 -----------------|------------------|------------------|---------------------|
 -----------------|------------------|------------------|---------------------|
 -----------------|------------------|------------------|---------------------|
 -----2-----2-----|-----4-----4------|------2-----2-----|------4-----4--------|
 ---0-----0-----0-|---2-----2-----2--|----0-----0-----0-|----2-----2-----2----|
 -2-----2-----2---|-4-----4-----4----|--2-----2-----2---|--4-----4-----4------|

Guitar 2:
Rhythm Fig. 2a
 
 -----------------|------------------|------------------|---------------------|
 -----------------|------------------|------------------|---------------------|
 -----------------|------------------|------------------|---------------------|
 -------4-4---4-2-|-4/6-6-6----4-----|------4-4-----4-2-|-4/6---------4-------|
 -----------------|---------7-----4--|------------------|--------7---------4--|
 -----------------|------------------|------------------|---------------------|

Guitar 3 (acoustic):
Rhythm Fig. 2b
 
 -------------0---|------------4-----|--------------0-----|-------------0-----|
 -----------0---0-|----------------0-|------------0-----0-|----------------0--|
 ---------4-------|---------4-----4--|----------4---------|-----------4-------|
 -----------------|------------------|--------------------|-------------------|
 -----------------|------------------|--------------------|-------------------|
 -----------------|------------------|--------------------|-------------------|

Guitar 3 (acoustic):
Rhythm Fig. 1b
[C#m7] [Aadd9] [C#m7]  
 
 ----------0---------|---------4-----------|-----------0----------|
 ---------------0----|------------------4--|------------------0---|
 -----4--------------|------4-------4------|------4---------------|
 --------------------|---------------------|----------------------|
 --------------------|---------------------|----------------------|
 --------------------|---------------------|----------------------|

[Aadd9] [C#m7] [Aadd9] [F#m7]  
 
 ------4----------|----------0-------|-------------------|-----------0--------|
 -----------4h5---|--------------0---|-------5-----4-----|---------0-------0--|
 ---4-----4-------|-------4----------|----4-----4--------|-------4------------|
 -----------------|------------------|-------------------|--------------------|
 -----------------|------------------|-------------------|--------------------|
 -----------------|------------------|-------------------|--------------------|

[G#m7] [F#m7] [G#m7]  
 
 -------0------------|----------0----------|---------------0-------|
 ---------------0----|--------0--------0---|------------------0----|
 ----4-------4-------|------4--------------|------------4----------|
 --------------------|---------------------|-----------------------|
 --------------------|---------------------|-----------------------|
 --------------------|---------------------|-----------------------|

Chords:
Rem[C#m7]ember how it used to b[Aadd9]e, when th[C#m7]e sun would fill th[Aadd9]e sky.
Rem[C#m7]ember how we used to f[Aadd9]eel, those[C#m7] days would ne-ver e[Aadd9]nd.
Those [F#m7]days would ne-ver end.[G#m7]
Remember how it used to be when the stars would fill the sky
Remember how we used to dream, those nights would never end
Those nights would never end
It was the [A]sweetness of your__skin. [B]
it was the hope of all_[C#m]___we might have been [E]
that filled me with the [A]hope to wish___[B]
im - pos-sib-le __ things.[C#m7]___
[Aadd9] To wish im - pos-sib-le __ things.[C#m7]____
[Aadd9] To wish im - pos-sib-le __ things.[C#m7]____
But now the sun shines cold and all the sky is grey
The stars are dimmed by clouds and tears
And all I wish is gone away, and all i wish is gone away
[F#m7]all I wish is gone[G#m7] away

Important: The song above is NOT stored on the Chordie server. The original song is hosted at www.xguitar.com. Chordie works as a search engine and provides on-the-fly formatting. Chordie does not index songs against artists'/composers' will. To remove this song please click here.

Text color:
Chord color:
Chord grids: 
Font size:    
Page size: 

A Aadd9 B C#m C#m7 E F#m7 G#m7
Rate #1 of 5 versions

Login - add to songbook

SHARE PAGE  



You need to log in to post comments