Guitar Tabs, Chords and Lyrics
Major upgrade!! After one year development the new version of Chordie is now online! Please give feedback.


The Noose   The Offspring

 
 ----------------------------------------------

 


 Artist: The Offspring


 Title: The Noose


 Tabbed By: Robert Rozing (z5_robert@yahoo.com)


 

 
 ----------------------------------------------

 


 Legend:


 


 * = strum numerous times (listen to the song)


 P.M. = Palm mute


 b = bend


 


 

 
 ----------------------------------------------

 


 


 [INTRO] (With a little palmmuting here and there)


 

 
 e|---------------------------------------------------------------------|
 B|---------------------------------------------------------------------|
 G|---------------------------------------------------------------------|
 D|-----9-----9-------5-5--5--5-5-------4---5---4---------4---5---4-----|
 A|-7-7---7-7-----------------------5-5---5---5---5---7-7---7---7---7---| (4x)
 E|---------------5-3-----3--3------------------------------------------|
 e|----------------------|
 B|-----8--15--20--------|
 G|----------------------|
 D|-2~--5--12--17---2~---|
 A|-2~--------------2~---|
 E|-0~--------------0~---|

 


 


 [VERSE] 


 e|-----|


 B|-----|


 G|-----|


 D|-----|


 A|-222-|


 E|-000-| <-- Not in the 1st verse


 


 

 
 e|-----------------------------|
 B|-----------------------------|
 G|---------7*------------------|
 D|-2*--5*--7*-2*--2*--5*--4*---|
 A|-2*--5*--5*-2*--2*--5*--4*---|
 E|-0*--3*-----0*--0*--3*--2*---|

 


 


 [CBORUS] 


 

 
 e|------------------|
 B|------------------|
 G|-9*------7*--9*---|
 D|-9*--5*--7*--9*---|
 A|-7*--5*--5*--7*---|
 E|-----3*-----------|

 


 


 e|----|


 B|----|


 G|-7~-|


 D|-7~-|


 A|-5~-|


 

 
 E|----| <-- Start of 2nd chorus

 


 


 [SOLO] (Rhythm guitar plays intro without palmmuting)


 

 
 e|----7-----7-------10----12-----|
 B|---10b12-12b10----13b15-15b17--|
 G|-9~------------12--------------|
 D|-------------------------------|
 A|-------------------------------|
 E|-------------------------------|

 


 ^ hold bend (You might wanna strike some of a bends multiple times)


 


 After the solo, play the chorus again, then play this:


 

 
 e|----------------------|
 B|-----8--15--20--------|
 G|----------------------|
 D|-2~--5--12--17---2~---|
 A|-2~--------------2~---|
 E|-0~--------------0~---|

 


 


 Then comes the intro again.


 


 [BRIDGE] 


 


 P.M. . . . . . . . .


 

 
 e|----------------------------------------------|
 B|----------------------------------------------|
 G|-7/9-9-9-9*------------5/7-7-7-7*-7/9-9-9-9*--|
 D|-7/9-9-9-9*-4/5-5-5-5*-5/7-7-7-7*-7/9-9-9-9*--|
 A|-5/7-7-7-7*-4/5-5-5-5*-3/5-5-5-5*-5/7-7-7-7*--| (4x)
 E|------------2/3-3-3-3*------------------------|

 


 


 [OUTRO] 


 

 
 e|----------------------|
 B|-----8--15--20--------|
 G|----------------------|
 D|-2~--5--12--17---2~---|
 A|-2~--------------2~---|
 E|-0~--------------0~---|


Important: The song above is NOT stored on the Chordie server. The original song is hosted at www.xguitar.com. Chordie works as a search engine and provides on-the-fly formatting. Chordie does not index songs against artists'/composers' will. To remove this song please click here.

This song is displayed as text-only. Transposing and tuning is only available for chordpro-songs.
Rate #2 of 4 versions

Jango Player

Login - add to songbook

SHARE PAGE  




You need to log in to post comments