Guitar Tabs, Chords and Lyrics
Major upgrade!! After one year development the new version of Chordie is now online! Please give feedback.


Ana  Pixies

Ana - Pixies
Opening chords: E E Bbm
Intro (solo played over chords appearing at top):
[Bbm] [A] [C#] [F#] [A] [Bbm] [A] 
 
 ----------------------------------------------------------
 ----------------------------------------------------------
 ----------------10-11-10-8-10---------8-------------------
 ---11---11-11-----------------11---11----11--11s8-8--7----
 ----------------------------------------------------------
 ----------------------------------------------------------

[C#] [F#] [A] [C#] [Ab] 
 
 ------------------------------------
 ------------------------------------
 -----10-11-10-8-10---------8--------
 -------------------11---11---11-11--
 ------------------------------------
 ------------------------------------

[C#] [Ab] [A] [Bbm] [E] [Bbm] 
 
 ------------------12--9-----------------------------------
 ----------------------------------------------------------
 ------8-9-11-8-s11------------8-9-11-10-------------------
 ---11----------------------11--------------11-------------
 ----------------------------------------------------------
 ----------------------------------------------------------

[Bm] She's my [Bb]faith
[D] Undressing in the su[G]n
[Bb] Return to [Bm]sea [Bb]I...
[D] Forgetting ever[G]yone
[Bb] Eleven [D]heart
[A] [C#]Ride [Ab] away[A] [Bbm] [E] [Bbm]
[Bbm] She's my [A]faith
[C#] Undressing every so[F#]und
[A]Return to [Bbm]sea [A]I...
[C#] forgetting ever[F#]yone
[A] Eleven [C#]high[Ab]
[D] Ride[A] away[Bb] [Bm] [F] [Bm]

Important: The song above is NOT stored on the Chordie server. The original song is hosted at www.xguitar.com. Chordie works as a search engine and provides on-the-fly formatting. Chordie does not index songs against artists'/composers' will. To remove this song please click here.

Text color:
Chord color:
Chord grids: 
Font size:    
Page size: 

A Ab Bb Bbm Bm C# D E F F# G
Rate #1 of 8 versions

Jango Player

Login - add to songbook

SHARE PAGE  



You need to log in to post comments