Guitar Tabs, Chords and Lyrics
Major upgrade!! After one year development the new version of Chordie is now online! Please give feedback.


I Bleed   Pixies

 
 E------------------------------------|
 B--5----5--5----5--5-----5-----------|
 G--5-h6-6--5-h6-6--5-h6--6-6p5/3-4-4-|
 D------------------------------------|
 A------------------------------------|
 E------------------------------------|
 E--------------------------------------------------------------|
 B-3-------5--5----5--5-----5-----------------------------------|
 G-3h4\5\6-6--5-h6-6--5-h6--6p5/3-4--4-3~~~~~~~~~~~~~tr(4)------|
 D--------------------------------------------------------------|
 A--------------------------------------------------------------|
 E--------------------------------------------------------------|

 


 


 as loud as hell


 a ringing bell [trill]


 behind my smile


 it shakes my teeth


 and all the while


 as vampires bleed [trill up tbe neck]


 


 gtr.2. F# - C - C#


 i bleed


 

 
 E----------------------|
 B-------12-------------|
 G-------14b--r--[13x]--|
 D----------------------|
 A----------------------|
 E----------------------|

 


 


 [intro] 


 


 prithee, my dear


 why are we here


 nobody knows


 we go to sleep


 as breathing flows


 my mind secedes


 i bleed


 


 [cborus] 


 


 

 
 gtr.2 F# - C5 - C# - C5 F# - A - B - A

 


 


 gtr.1


 

 
 E--------------------------|-------------------------------|
 B--12------------------12--|-------------------------------|
 G--14b--r--14--12--14------|--11--10--11--13~~~~/(11)-[3x]-|
 D--------------------------|-------------------------------|
 A--------------------------|-------------------------------|
 E--------------------------|-------------------------------|

 


 


 '''''''''' ''''''''''''' ''''''''''


 

 
 E---------------------------15--------------16-----------------|
 B---------------14---------------------------------------------|
 G--14~~~~~~~~--------------------------------------------------|
 D--------------------------------------------------------------|
 A--------------------------------------------------------------|
 E--------------------------------------------------------------|

 


 


 there's a place


 in the buried west


 in a cave


 with a house in it


 in the clay


 the holes of hands


 you can place


 a hand in hand


 


 i bleed [let ring]


 

 
 E----------------|-------------------|
 B--15b--r--[13x]-|-------------------|
 G----------------|--14---------------|
 D----------------|-------------------|
 A----------------|-------------------|
 E----------------|-------------------| 


Important: The song above is NOT stored on the Chordie server. The original song is hosted at www.xguitar.com. Chordie works as a search engine and provides on-the-fly formatting. Chordie does not index songs against artists'/composers' will. To remove this song please click here.

This song is displayed as text-only. Transposing and tuning is only available for chordpro-songs.
Rate #3 of 4 versions

Jango Player

Login - add to songbook

SHARE PAGE  




You need to log in to post comments