Guitar Tabs, Chords and Lyrics
Major upgrade!! After one year development the new version of Chordie is now online! Please give feedback.


Alone, Together  The Strokes

ALONE, TOGETHER
 
 ---------------

tabbed by: FRANCOIS Bruno ( francoisbruno@caramail.com )
INTRO
FIRST GUITAR
Repeat that part 2 times
[Am]  
 
 e---------------------------------
 B-----1---------------1-----------
 G-------2---------------2--------- i'm not sure of the two last note cos
 D---------2-2-0-2---------2-2-0-2- the bass play in he same octave
 A-0-0-------------0-0-------------
 E---------------------------------

this riff is used always by the same guitar
I call it the first guitar to be clear
And then
VERSES
The second guitar play that during all that part except when there's a star after the Am,
in that case only the first guitar play. The first guitar play only the main riff (like the intro)
and only on the Am.
G F Am*
No choice now, it's too late
G F Am*
Let him go, he gave up
Am*
I gave up
[F]Lisa says, "Take time for me"[G]
Dropping him down to his knees[Am]
Ah, chest down...
CHORUS
FIRST GUITAR
[Am] [B#m]  
 
 e-------------------------------
 B-------------------------------
 G----------------------7--------
 D-7-7-9------------9-9----------
 A-------10--10-10--------9--9-9-
 E-------------------------------

SECOND GUITAR
[Am]Take me away
See I've [B#m]got to explain
[Am]Things, they have changed
In such a [B#m]permanent way
[Am]Life seems unreal
Can we go [B#m]back to your place?
Oh, [Am]"You drink too much"
Makes me [B#m]drink just the same
BREAK
Like the intro
VERSE
F G Am* Am*
People tried. Felt so right
[F]Giving themselves good advice[G]
Am Am + trans
Looking down sometimes felt nice...
TRANS (just first guitar)
 
 e-5-5-5-8-8-8-
 B-5-5-5-8-8-8-

BRIDGE
[Am]He knows it's justified to kill to survi[C]ve[D] [C]
[Am]He then in dollars makes more dead than aliv[C]e[D] [C]
[Am]Let's suck more blood, let's run three hours a day[C] [D] [C]
[Am]The world is over but I don't ca[C]re[D]
'Cause
CHORUS
I am with you
Now I've got to explain
Things, they have changed
In such a permanent way
Life seems unreal
Can we go back to your place?
"You drink too much"
Makes me drink just the same
SOLO
[Am] [C] [B] [C]  
 
 e-3-3-4-5-5-5-5-8-8-8-8-7-7-7-7-8-8-8-8-5-5-5-5-8-8-8-8-7-7-7-7-8---8--
 B-3-3-4-5-5-5-5-8-8-8-8-7-7-7-7-8-8-8-8-5-5-5-5-8-8-8-8-7-7-7-7---7----
 G----------------------------------------------------------------------
 D----------------------------------------------------------------------
 A----------------------------------------------------------------------
 E----------------------------------------------------------------------
 e--3--3--3--3----------------------3--3--3--3------10-10-10-10--
 B-5--5--5--5--5----3--3--3--3-----5--5--5--5--5---8--8--8--8--8-
 G-----------------5--5--5--5--5---------------------------------
 D---------------------------------------------------------------
 A---------------------------------------------------------------
 E---------------------------------------------------------------

Play that part like the beginning of the solo
[Am]The first ti[C]me, it ha[B]ppened too [C]fast
[Am]The second time,[C] I thought it wo[B]uld last[C]
[Am]We all like it a[C] little differen[D]t...[Am+]
e-[D]10--[Am+]17-
B-10--17-
OUTRO
 
 e-17-15-------------5-4-3-------
 B------17--17-15----------5-4-3-
 G---------------17--------------
 D-------------------------------
 A-------------------------------
 E-------------------------------

End with the same part as the intro
CHORDS USED
[G] [F] [Am] [B#m] [Am] [C] [D]  
 
 e---3----1----0----2----5----3---5---
 B---3----1----1----3----5----5---7---
 G---4----2----2----4----5----5---7---
 A---5----3----2----4----7----5---7---
 D-----------------------7----3---5---
 E-----------------------5----3---5---

Enjoy!!!!!

Important: The song above is NOT stored on the Chordie server. The original song is hosted at www.xguitar.com. Chordie works as a search engine and provides on-the-fly formatting. Chordie does not index songs against artists'/composers' will. To remove this song please click here.

Text color:
Chord color:
Chord grids: 
Font size:    
Page size: 

Am B C D F G
Rate #1 of 1 versions

Login - add to songbook

SHARE PAGE  




You need to log in to post comments