Guitar Tabs, Chords and Lyrics
Major upgrade!! After one year development the new version of Chordie is now online! Please give feedback.


Soma  The Strokes

[----]Intro:G, G,
[G] [G]  
 
 E--------10--------10
 B-----8-8------8-8---
 G-9-9------9-9-------
 D--------------------
 A--------------------
 E--------------------

Verse riff:
G F (see below for shapes)
 
 E---------10-------10------------8--------8-
 B-----8-8------8-8-----------6-6------6-6---
 G-9-9------9-9-----------7-7------7-7-------
 D-------------------------------------------
 A-------------------------------------------
 E-------------------------------------------

Then after two lines of this, the second guitar comes in and does a slight
variation of the riff(something like this):
 
 E---10---10---10---10---8---8---8---8
 B--8--8-8--8-8--8-8--8-6-6-6-6-6-6-6-
 G-9----9----9----9----7---7---7---7--
 D------------------------------------
 A------------------------------------
 E------------------------------------

Then the next bit of the song goes:
G(see below for shape)
 
 E-10--10--10--10--10--10--9-9-9-9
 B---------------------------------
 G-7---7---7---7---7---7---6-6-6-6- X 2
 D---------------------------------
 A---------------------------------
 E---------------------------------

Dm(see below for shape)
 
 E-10--10--10--10--10--10--8-8-8-8-
 B---------------------------------
 G-7---7---7---7---7---7---5-5-5-5- X 2
 D---------------------------------
 A---------------------------------
 E---------------------------------

Then the chords go:
G,G,G,G,G
And that's the whole song, pretty simple really. You should be able to piece the
whole song together using these parts, it's all there!
Chord shapes:
[G] [F] [Dm]  
 
 E-7-----5-----5
 B-8-----6-----6
 G-7-----5-----7
 D--------------
 A--------------
 E--------------

Chris Berti
Berti@nme.com

Important: The song above is NOT stored on the Chordie server. The original song is hosted at www.xguitar.com. Chordie works as a search engine and provides on-the-fly formatting. Chordie does not index songs against artists'/composers' will. To remove this song please click here.

Text color:
Chord color:
Chord grids: 
Font size:    
Page size: 

Dm F G
Rate #7 of 7 versions

Jango Player

Login - add to songbook

SHARE PAGE  




You need to log in to post comments