Guitar Tabs, Chords and Lyrics
Major upgrade!! After one year development the new version of Chordie is now online! Please give feedback.


Romeo and the Lonely Girl  Thin Lizzy

VB= VIBRATO
S= SLIDE
H= HAMMER
P= PULL
B= BEND UP
R= RELEASE (UNBEND)
SB= SLOW BEND UP
Intro 1st time 2nd time
________________ ______________________
| |
'G'maj 'E'minor
 
 Eb|--10-x-10---10---10--|--7-x-7---7---7--|--7-x-7--7-7-7--------|
 Bb|*-12-x-12---12---12--|--8-x-8---8---8-*|--8-x-8--8-8-8--------|
 Gb|--12-x-12---12---12--|--9-x-9---9---9--|--9-x-9--9-9-9--------|
 Db|*-12-x-12---12---12--|--9-x-9---9---9-*|--9-x-9---------------|
 Ab|--10-x-10---10-------|--7-x-7---7------|--7-x-7---------------|
 Eb|---------------------|-----------------|----------------------|

Verse
'G'maj 'E'minor 'A'minor
repeatx2
 
 Eb|--10-x-10---10---10--|--7------x-7---7---7--|--5-x-5---5---5--|
 Bb|--12-x-12---12---12--|*-7-H-8--x-8---8---8--|--5-x-5---5---5-*|
 Gb|--12-x-12---12---12--|--7-H-9--x-9---9---9--|--5-x-5---5---5--|
 Db|--12-x-12---12---12--|*-7-H-9--x-9---9---9--|--7-x-7---7---7-*|
 Ab|--10-x-10---10-------|--7------x-7---7------|--7---7---7---7--|
 Eb|---------------------|----------------------|-----------------|

'E'minor 'D'maj c B A
 
 Eb|--7-x-7---7---7--|-----------------|-------------|
 Bb|--8-x-8---8---8--|--7--7-----8--7--|-------------|
 Gb|--9-x-9---9---9--|--7-----7--------|--5----4--2--|
 Db|--9-x-9---9---9--|--7--------------|--5----4--2--|
 Ab|--7-x-7----------|--5--------------|--3----2--0--|
 Eb|-----------------|-----------------|-------------|

Chorus (All rythms for chords same as before.)
repeatx2 C Maj
 
 Eb|-------------|------------------|------------------|-----------|
 Bb|*------------|-----------------*|------------------|-----------|
 Gb|----G maj---------E minor-------------A minor------|-5---------|
 Db|*------------|-----------------*|------------------|-5---------|
 Ab|-------------|------------------|------------------|-3-HOLD----|
 Eb|-------------|------------------|------------------|-----------|

[D] [maj] [C] [B] [A]  
 
 Eb|-------------------------------|--------------|
 Bb|----H-7--7--7----H-7--7--7--7--|--------------|
 Gb|--5-H-7--------5-H-7-----------|---5--4-------|
 Db|--5-H-7--------5-H-7-----------|---5--4--2----|
 Ab|--5------------5---------------|---3--2--0----|
 Eb|-------------------------------|--------------|

SOLO (BOTH GUITARS PLAY THE SAME NOTES.)
1st time
 
 -------------------------------

|
 
 Eb|--------------------------------|-------------------------------|
 Bb|*-----7-8-7---------------------|-----7-8-7--------------------*|
 Gb|--7-9--------9--7---------------|-7-9--------9--7---------------|
 Db|-------------------9--7-5-VB----|------------------9-7-9-7-9-VB-|
 Ab|*-------------------------------|------------------------------*|
 Eb|--------------------------------|-------------------------------|

2nd time
 
 ---------------------------------------

|
REPEAT LICK X4 FAST B B
 
 |-----|---P--P----------H--P------------|--17-19--17-19-VB---------|
 |-----|-15-13-12------12-13-12----|-----|--------------------------|
 |--12-|------------12----------12-|-----|--------------------------|
 |---------------------------------------|--------------------------|
 |---------------------------------------|--------------------------|
 |---------------------------------------|--------------------------|

B R B B R P P P
 
 |-17-19-17-15-17-19-VIB-|--15--17-19-17-15--17-15---P---15-12------|
 |-----------------------|-------------------------17-15-------15---|
 |-----------------------|------------------------------------------|
 |-----------------------|------------------------------------------|
 |-----------------------|------------------------------------------|
 |-----------------------|------------------------------------------|
 |----------P---------------------------------H-----------H---------|
 |----P---15-12---SB----------P-------------12-13-12----12-13-12----|
 |--14-16-------14--16------14-12----12-VB-----------14----------14-|
 |--------------------------------14--------------------------------|
 |------------------------------------------------------------------|
 |------------------------------------------------------------------|

[B]  
 
 |--12-15-12-------H-------|------P--------P--------P--------P------|
 |-----------15--12-13-12--|----15-12----15-12----15-12----15-12----|
 |-------------------------|----------12-------12-------12-------12-|
 |-------------------------|----------------------------------------|
 |-------------------------|----------------------------------------|
 |-------------------------|----------------------------------------|
 |----P-----------------------------|-------------------------------|
 |--15-12-------S-------------------|-------------------------------|
 |--------12--12-14-12--------------|-------------------------------|
 |---------------------14-12-14-VIB-|-------------------------------|
 |----------------------------------|-------------------------------|
 |----------------------------------|-------------------------------|
 |-------P--------P--------P--------P--------P------------------------|
 |-----15-12----15-12----15-12----15-12----15-12----------------------|
 |--12-------12-------12-------12-------12-------12---S---------------|
 |--------------------------------------------------12-14-12----12-14VB
 |-----------------------------------------------------------14-------|
 |--------------------------------------------------------------------|
 |----------------------------S------17-----------P-----H--P----------|
 |----------------S---------14-20-17----20-VB---17-15-17-19-17----19-VB
 |-----11-12-11-12-16-14-12------------------------------------19-----|
 |--14----------------------------------------------------------------|
 |--------------------------------------------------------------------|
 |--------------------------------------------------------------------|
 |----P--------P--------P------10-------------------------------------|
 |--17-15-17-15-12-15-12-10-12----12-VB-----P-------------------------|
 |----------------------------------------14-12---P-------------------|
 |----------------------------------------------14-12-----------------|
 |----------------------------------------------------14--------------|
 |--------------------------------------------------------------------|

P REPEAT
 
 |--15-12--12-14-VB----P--------P--------P-----10---------------------|
 |*------15----------17-15-17-15-12-15-12-10-12--12-VB----P----------*|
 |------------------------------------------------------14-12---P-----|
 |*-----------------------------------------------------------14-12--*|
 |-----------------------------------------------------------------14-|
 |--------------------------------------------------------------------|
 |--15-12----12-14-VB-----P--------P--------P------------------------|
 |--------15------------17-15-17-15-12-15-12-10---P--------P---------|
 |----------------------------------------------14-12-14-12-11-12----|
 |-------------------------------------------------------------------|
 |-------------------------------------------------------------------|
 |-------------------------------------------------------------------|

P B R P END OF SOLO
 
 |------------12-15-12--------B-------17-19-17-15----17-15-VIB-------|
 |----SB---12----------15-(15)-17-VIB-------------17-----------------|
 |--14--16-----------------------------------------------------------|
 |-------------------------------------------------------------------|
 |-------------------------------------------------------------------|
 |-------------------------------------------------------------------|


Important: The song above is NOT stored on the Chordie server. The original song is hosted at www.xguitar.com. Chordie works as a search engine and provides on-the-fly formatting. Chordie does not index songs against artists'/composers' will. To remove this song please click here.

Text color:
Chord color:
Chord grids: 
Font size:    
Page size: 

A B C D
Rate #2 of 2 versions

Login - add to songbook

SHARE PAGE  




You need to log in to post comments