Guitar Tabs, Chords and Lyrics
Server problems seems to be fixed. Chordie has been experiencing problems with songs disappearing. These issues now seems to be fixed, but still verifying the fix. If you find anything strange, please email admin@chordie.com.


Laughing Man (In the Devil Mask)  Tony Iommi

Started: 12:09 11/1/00
Finished: 15:33 11/9/00
Updated: 14:35 11/13/00
Iommi - Laughing Man in the Devil Mask
From Tony Iommi's "Iommi", 17 October, 2000
Tuning Info: Tune to C#, Andante, 102 Beats/min., 4/4 count
Note: Lyrics may not aligh with music and multiple guitar parts may not
align due to space constraints.
(ff)
 
 -------------------------------------
 -------------------------------------
 -------------------------------------
 -------------------------------------
 -------------------------------------
 -0h1h3p0-0h1h3p0---0h1h3p0-0h1h3p0---
 -----------------------------------------------------------
 -----------------------------------------------------------
 -----------------------------------------------------------
 -----------------------------------------------------------
 -----------------------------------------------------------
 -0-0h1h3p0--0-0h1h3p0-0h1h3~--0-0h1h3p0-0-0h1h3p0-0h1h3~---
 -----------------------------------------------------------
 -----------------------------------------------------------
 -----------------------------------------------------------
 -----------------------------------------------------------
 -----------------------------------------------------------
 -0-0h1h3p0--0-0h1h3p0-0h1h3~--0-0h1h3p0-0-0h1h3p0-0h1h3~---
 -----------------------------------------------------------
 -----------------------------------------------------------
 -----------------------------------------------------------
 -----------------------------------------------------------
 -----------------------------------------------------------
 -0-0h1h3p0--0-0h1h3p0-0h1h3~--0-0h1h3p0-0-0h1h3p0-0h1h3~---

The Laughing Man in the Devil Mask, The Laughing Man in the Devil Mask
 
 -----------------------------------------------------------
 -----------------------------------------------------------
 -----------------------------------------------------------
 -----------------------------------------------------------
 -----------------------------------------------------------
 -0-0h1h3p0--0-0h1h3p0-0h1h3~--0-0h1h3p0-0-0h1h3p0-0h1h3~---

The Laughing Man in the Devil Mask, The Laughing Man in the Devil Mask
[A#] [A] [G] [A] [G/A#A] [G] [A] 
 
 ---------------------------------------------
 ---------------------------------------------
 ---------------------------------------------
 ---------------------------------------------
 ------8-5--------5-7--------5/6-7------5-7---
 -0-0--6-7-3p0-0--3-5--5p0-0-3/8-5-3p0--3-5---

You rip yourself to shreds, while I stood laughing
[G/A#A] [G] [A] [G/A#A] [G] [A] 
 
 ------------------------------------------------
 ------------------------------------------------
 ------------------------------------------------
 ------------------------------------------------
 -------5/8-7--------5-7--------5-8-7------5-7---
 -5p0-0-3/6-5-3p0-0--3-5--5p0-0-3/6-5-3p0--3-5---

You'd like to see me pay, for the time your having
[G/A#A] [G] [A] [G/A#A] [G] [A] 
 
 ------------------------------------------------
 ------------------------------------------------
 ------------------------------------------------
 ------------------------------------------------
 -------5/8-7--------5-7--------5-8-7------5-7---
 -5p0-0-3/6-5-3p0-0--3-5--5p0-0-3/6-5-3p0--3-5---

You'll walk that line again. You'll try to die again.
[G/A#A] [G] [A] [G/A#A] [G] [A] 
 
 ------------------------------------------------
 ------------------------------------------------
 ------------------------------------------------
 ------------------------------------------------
 -------5/8-7--------5-7--------5-8-7------5-7---
 -5p0-0-3/6-5-3p0-0--3-5--5p0-0-3/6-5-3p0--3-5---

You'll waste your nights just thinking of me, oh yea.
[E] [E] [E] [E] [E] [E] [E] [E] [E] [E] [E] [E] [E] [E] [E] [E] [E] [E] [E] [E] [E] [E] [E] [E] 
 
 -----------------------------------------------------------------
 -----------------------------------------------------------------
 -9-9-9---9-9-9---9-9-9---9-9-9---9-9-9---9-9-9---9-9-9---9-9-9---
 -9-9-9---9-9-9---9-9-9---9-9-9---9-9-9---9-9-9---9-9-9---9-9-9---
 -7-7-7---7-7-7---7-7-7---7-7-7---7-7-7---7-7-7---7-7-7---7-7-7---
 -----------------------------------------------------------------

[Fmaj7] [Fmaj7]  
 
 -------------------------------0-0----------------------------0-0-
 -------------------------------1-1----------------------------1-1-
 -------------------------------2-2----------------------------2-2-
 -------------------------------3-3----------------------------3-3-
 ------------------------------------------------------------------
 ------------------------------------------------------------------

 
 ----------------------------------------------------
 -15~---15~---15~---15~---14~---14~---14~---14~------
 ----14~---14~---14~---14~---13~---13~---13~---13~---
 ----------------------------------------------------
 ----------------------------------------------------
 ----------------------------------------------------

[D] [D] [D] [D] [D] [D] [D] [C#] [C#] [C#] [C#] [C#] [C#] [C#] 
 
 ---------------------------------------------------
 ---------------------------------------------------
 ---------------------------------------------------
 ---------------------------------------------------
 -12-12-12-12-12-12-12--11-11-11-11-11-11-11--------
 -10-10-10-10-10-10-10---9--9--9--9--9--9--9--------

As the needle Finds the vain
 
 ----------------------------------------------------
 -12~---12~---12~---12~---10~---10~---10~---10~------
 ----12~---12~---12~---12~---10~---10~---10~---10~---
 ----------------------------------------------------
 ----------------------------------------------------
 ----------------------------------------------------

[G] [G] [G] [G] [G] [G] [G] [F] [F] [F] [F] [F] [F] [F] 
 
 ----------------------------------------------------
 ----------------------------------------------------
 -12-12-12-12-12-12-12--10--10--10--10--10--10--10---
 -12-12-12-12-12-12-12--10--10--10--10--10--10--10---
 -10-10-10-10-10-10-10---8---8---8---8---8---8---8---
 ----------------------------------------------------

As the bullet goes through the brain
 
 ----------------------------------------------------
 -15~---15~---15~---15~---14~---14~---14~---14~------
 ----14~---14~---14~---14~---13~---13~---13~---13~---
 ----------------------------------------------------
 ----------------------------------------------------
 ----------------------------------------------------

[D] [D] [D] [D] [D] [D] [D] [C#] [C#] [C#] [C#] [C#] [C#] [C#] 
 
 ---------------------------------------------------
 ---------------------------------------------------
 ---------------------------------------------------
 ---------------------------------------------------
 -12-12-12-12-12-12-12--11-11-11-11-11-11-11--------
 -10-10-10-10-10-10-10---9--9--9--9--9--9--9--------

As you city meets the sea
 
 ----------------------------------------------------
 -12~---12~---12~---12~---10~---10~---10~---10~------
 ----12~---12~---12~---12~---10~---10~---10~---10~---
 ----------------------------------------------------
 ----------------------------------------------------
 ----------------------------------------------------

[G] [G] [G] [G] [G] [G] [G] [F] [F] [F] [F] [F] [F] [F] 
 
 ----------------------------------------------------
 ----------------------------------------------------
 -12-12-12-12-12-12-12--10--10--10--10--10--10--10---
 -12-12-12-12-12-12-12--10--10--10--10--10--10--10---
 -10-10-10-10-10-10-10---8---8---8---8---8---8---8---
 ----------------------------------------------------

As you're drowning, think of me
 
 -----------------------------------------------------------
 -----------------------------------------------------------
 -----------------------------------------------------------
 -----------------------------------------------------------
 -----------------------------------------------------------
 -0-0h1h3p0--0-0h1h3p0-0h1h3~--0-0h1h3p0-0-0h1h3p0-0h1h3~---

The Laughing Man in the Devil Mask, The Laughing Man in the Devil Mask
 
 -----------------------------------------------------------
 -----------------------------------------------------------
 -----------------------------------------------------------
 -----------------------------------------------------------
 -----------------------------------------------------------
 -0-0h1h3p0--0-0h1h3p0-0h1h3~--0-0h1h3p0-0-0h1h3p0-0h1h3~---

The Laughing Man in the Devil Mask, The Laughing Man in the Devil Mask
[A#] [A] [G] [A] [G/A#A] [G] [A] 
 
 ---------------------------------------------
 ---------------------------------------------
 ---------------------------------------------
 ---------------------------------------------
 ------8-5--------5-7--------5/6-7------5-7---
 -0-0--6-7-3p0-0--3-5--5p0-0-3/8-5-3p0--3-5---

I am the lord of time, The Laughing Man in the Devil Mask
[G/A#A] [G] [A] [G/A#A] [G] [A] 
 
 ------------------------------------------------
 ------------------------------------------------
 ------------------------------------------------
 ------------------------------------------------
 -------5/8-7--------5-7--------5-8-7------5-7---
 -5p0-0-3/6-5-3p0-0--3-5--5p0-0-3/6-5-3p0--3-5---

I am the birth of crime, The Laughing Man in the Devil Mask
[G/A#A] [G] [A] [G/A#A] [G] [A] 
 
 ------------------------------------------------
 ------------------------------------------------
 ------------------------------------------------
 ------------------------------------------------
 -------5/8-7--------5-7--------5-8-7------5-7---
 -5p0-0-3/6-5-3p0-0--3-5--5p0-0-3/6-5-3p0--3-5---

Drop to your knees again, The Laughing Man in the Devil Mask
[G/A#A] [G] [A] [G/A#A] [G] [A] 
 
 ------------------------------------------------
 ------------------------------------------------
 ------------------------------------------------
 ------------------------------------------------
 -------5/8-7--------5-7--------5-8-7------5-7---
 -5p0-0-3/6-5-3p0-0--3-5--5p0-0-3/6-5-3p0--3-5---

Tie off and die again, The Laughing Man in the Devil Mask
[E] [E] [E] [E] [E] [E] [E] [E] [E] [E] [E] [E] [E] [E] [E] [E] [E] [E] [E] [E] [E] [E] [E] [E] 
 
 -----------------------------------------------------------------
 -----------------------------------------------------------------
 -9-9-9---9-9-9---9-9-9---9-9-9---9-9-9---9-9-9---9-9-9---9-9-9---
 -9-9-9---9-9-9---9-9-9---9-9-9---9-9-9---9-9-9---9-9-9---9-9-9---
 -7-7-7---7-7-7---7-7-7---7-7-7---7-7-7---7-7-7---7-7-7---7-7-7---
 -----------------------------------------------------------------

E13sus4\Ebsus4 E#sus4 E#sus4\Ebsus4
 
 ------------------------------------------------------------------
 ------------------------------------------------------------------
 -----9\8-9\8------10-10--------10\8-8-----------------------------
 -----x-x-x-x------x--x---------x--x-x-----------------------------
 -----7\6-7\6------8--8---------8-\6-6-----------------------------
 ------------------------------------------------------------------

 
 ----------------------------------------------------
 -15~---15~---15~---15~---14~---14~---14~---14~------
 ----14~---14~---14~---14~---13~---13~---13~---13~---
 ----------------------------------------------------
 ----------------------------------------------------
 ----------------------------------------------------

[D] [D] [D] [D] [D] [D] [D] [C#] [C#] [C#] [C#] [C#] [C#] [C#] 
 
 ---------------------------------------------------
 ---------------------------------------------------
 ---------------------------------------------------
 ---------------------------------------------------
 -12-12-12-12-12-12-12--11-11-11-11-11-11-11--------
 -10-10-10-10-10-10-10---9--9--9--9--9--9--9--------

Push the rock Back up the hill
 
 ----------------------------------------------------
 -12~---12~---12~---12~---10~---10~---10~---10~------
 ----12~---12~---12~---12~---10~---10~---10~---10~---
 ----------------------------------------------------
 ----------------------------------------------------
 ----------------------------------------------------

[G] [G] [G] [G] [G] [G] [G] [F] [F] [F] [F] [F] [F] [F] 
 
 ----------------------------------------------------
 ----------------------------------------------------
 -12-12-12-12-12-12-12--10--10--10--10--10--10--10---
 -12-12-12-12-12-12-12--10--10--10--10--10--10--10---
 -10-10-10-10-10-10-10---8---8---8---8---8---8---8---
 ----------------------------------------------------

You start to feel like you're standing still
 
 ----------------------------------------------------
 -15~---15~---15~---15~---14~---14~---14~---14~------
 ----14~---14~---14~---14~---13~---13~---13~---13~---
 ----------------------------------------------------
 ----------------------------------------------------
 ----------------------------------------------------

[D] [D] [D] [D] [D] [D] [D] [C#] [C#] [C#] [C#] [C#] [C#] [C#] 
 
 ---------------------------------------------------
 ---------------------------------------------------
 ---------------------------------------------------
 ---------------------------------------------------
 -12-12-12-12-12-12-12--11-11-11-11-11-11-11--------
 -10-10-10-10-10-10-10---9--9--9--9--9--9--9--------

Your life lies broken for all to see
 
 ----------------------------------------------------
 -12~---12~---12~---12~---10~---10~---10~---10~------
 ----12~---12~---12~---12~---10~---10~---10~---10~---
 ----------------------------------------------------
 ----------------------------------------------------
 ----------------------------------------------------

[G] [G] [G] [G] [G] [G] [G] [F] [F] [F] [F] [F] [F] [F] 
 
 ----------------------------------------------------
 ----------------------------------------------------
 -12-12-12-12-12-12-12--10--10--10--10--10--10--10---
 -12-12-12-12-12-12-12--10--10--10--10--10--10--10---
 -10-10-10-10-10-10-10---8---8---8---8---8---8---8---
 ----------------------------------------------------

You'll hear the laughter, then you'll see me.
 
 -------------------------------------------------------------------------
 -------------------------------------------------------------------------
 -------------------------------------------------------------------------
 -------------------------------------------------------------------------
 -------------------------------------------------------------------------
 -0h1h3p0-0h1h3p0---0h1h3p0-0h1h3p0---0h1h3p0-0h1h3p0---0h1h3p0-0h1h3p0---

The Laughing Man in the Devil Mask The Laughing Man in the Devil Mask
The Laughing Man in the Devil Mask The Laughing Man in the Devil Mask
 
 -------------------------------------------------------------------------
 -------------------------------------------------------------------------
 -------------------------------------------------------------------------
 -------------------------------------------------------------------------
 -------------------------------------------------------------------------
 -0h1h3p0-0h1h3p0---0h1h3p0-0h1h3p0---0h1h3p0-0h1h3p0---0h1h3p0-0h1h3p0---

SOLO
 
 -(9)/24^(26)-24~~~-------------------------------------------------------------------
 -------------------15^(17)-17-17-17~~~-17ph15h17 tr~~~-------------------------------
 ------------------------------------------------------17ph15h17 tr~~~----------------
 ---------------------------------------------------------------------15ph13h15 tr~~~-
 -------------------------------------------------------------------------------------
 -------------------------------------------------------------------------------------

[G] [A] [G] [A] 
 
 ------------------------------------------------------------
 ------------------------------------------------------------
 ------------------------------------------------------------
 ------------------------------------------------------------
 -------------------------5-7--------------------------5-7---
 -3p0-0-5p0-0-3p0-0-5p0-0-3-5--3p0-0-5p0-0-3p0-0-5p0-0-3-5---

 
 -----------------------------------------------------12---------------------
 --------------------------15~~---------------------12--15p12-------12-15p12-
 -14p12---------------12h14-----------13p12--14^(16)---------14^(16)---------
 ------14-14p12--12h14---------15-12-----------------------------------------
 --------------14-------------------15-----15--------------------------------
 ----------------------------------------------------------------------------

[G] [A] [G] [A] 
 
 ------------------------------------------------------------
 ------------------------------------------------------------
 ------------------------------------------------------------
 ------------------------------------------------------------
 -------------------------5-7--------------------------5-7---
 -3p0-0-5p0-0-3p0-0-5p0-0-3-5--3p0-0-5p0-0-3p0-0-5p0-0-3-5---

 
 -------------------------------------------------------
 --12-15p12---------------------------------12-12~~-----
 ----------14-12-14p12---1214p12--12-14^(16)------------
 ---------------------14--------14----------------------
 -------------------------------------------------------
 -------------------------------------------------------

[G] [A] [G] [A] 
 
 ------------------------------------------------------------
 ------------------------------------------------------------
 ------------------------------------------------------------
 ------------------------------------------------------------
 -------------------------5-7--------------------------5-7---
 -3p0-0-5p0-0-3p0-0-5p0-0-3-5--3p0-0-5p0-0-3p0-0-5p0-0-3-5---

 
 -----------------------------------------------------------------------------
 --18^(20`18)-15-15-18~~-15-12-12-15p12--12-15--------------------------------
 --------------------------------------14-----14p12--12-15^(17-17-17-17-17~~)-
 --------------------------------------------------14-------------------------
 -----------------------------------------------------------------------------
 -----------------------------------------------------------------------------

[G] [A] [G] [A] 
 
 ------------------------------------------------------------
 ------------------------------------------------------------
 ------------------------------------------------------------
 ------------------------------------------------------------
 -------------------------5-7--------------------------5-7---
 -3p0-0-5p0-0-3p0-0-5p0-0-3-5--3p0-0-5p0-0-3p0-0-5p0-0-3-5---

[E] [E] [E] [E] [E] [E] [E] [E] [E] [E] [E] [E] [E] [E] [E] [E] [E] [E] [E] [E] [E] [E] [E] [E] 
 
 -----------------------------------------------------------------
 -----------------------------------------------------------------
 -9-9-9---9-9-9---9-9-9---9-9-9---9-9-9---9-9-9---9-9-9---9-9-9---
 -9-9-9---9-9-9---9-9-9---9-9-9---9-9-9---9-9-9---9-9-9---9-9-9---
 -7-7-7---7-7-7---7-7-7---7-7-7---7-7-7---7-7-7---7-7-7---7-7-7---
 -----------------------------------------------------------------

 
 ----------------------------------------------------
 -15~---15~---15~---15~---14~---14~---14~---14~------
 ----14~---14~---14~---14~---13~---13~---13~---13~---
 ----------------------------------------------------
 ----------------------------------------------------
 ----------------------------------------------------

[D] [D] [D] [D] [D] [D] [D] [C#] [C#] [C#] [C#] [C#] [C#] [C#] 
 
 ---------------------------------------------------
 ---------------------------------------------------
 ---------------------------------------------------
 ---------------------------------------------------
 -12-12-12-12-12-12-12--11-11-11-11-11-11-11--------
 -10-10-10-10-10-10-10---9--9--9--9--9--9--9--------

Tender flock Led astray
 
 ----------------------------------------------------
 -12~---12~---12~---12~---10~---10~---10~---10~------
 ----12~---12~---12~---12~---10~---10~---10~---10~---
 ----------------------------------------------------
 ----------------------------------------------------
 ----------------------------------------------------

[G] [G] [G] [G] [G] [G] [G] [F] [F] [F] [F] [F] [F] [F] 
 
 ----------------------------------------------------
 ----------------------------------------------------
 -12-12-12-12-12-12-12--10--10--10--10--10--10--10---
 -12-12-12-12-12-12-12--10--10--10--10--10--10--10---
 -10-10-10-10-10-10-10---8---8---8---8---8---8---8---
 ----------------------------------------------------

You always knew it would be this way
 
 ----------------------------------------------------
 -15~---15~---15~---15~---14~---14~---14~---14~------
 ----14~---14~---14~---14~---13~---13~---13~---13~---
 ----------------------------------------------------
 ----------------------------------------------------
 ----------------------------------------------------

[D] [D] [D] [D] [D] [D] [D] [C#] [C#] [C#] [C#] [C#] [C#] [C#] 
 
 ---------------------------------------------------
 ---------------------------------------------------
 ---------------------------------------------------
 ---------------------------------------------------
 -12-12-12-12-12-12-12--11-11-11-11-11-11-11--------
 -10-10-10-10-10-10-10---9--9--9--9--9--9--9--------

You just go now no need to ask
 
 ----------------------------------------------------
 -12~---12~---12~---12~---10~---10~---10~---10~------
 ----12~---12~---12~---12~---10~---10~---10~---10~---
 ----------------------------------------------------
 ----------------------------------------------------
 ----------------------------------------------------

[G] [G] [G] [G] [G] [G] [G] [F] [F] [F] [F] [F] [F] [F] 
 
 ----------------------------------------------------
 ----------------------------------------------------
 -12-12-12-12-12-12-12--10--10--10--10--10--10--10---
 -12-12-12-12-12-12-12--10--10--10--10--10--10--10---
 -10-10-10-10-10-10-10---8---8---8---8---8---8---8---
 ----------------------------------------------------

You are the face behind the Devil mask
 
 ----------------------------------------------------
 -15~---15~---15~---15~---14~---14~---14~---14~------
 ----14~---14~---14~---14~---13~---13~---13~---13~---
 ----------------------------------------------------
 ----------------------------------------------------
 ----------------------------------------------------

[D] [D] [D] [D] [D] [D] [D] [C#] [C#] [C#] [C#] [C#] [C#] [C#] 
 
 ---------------------------------------------------
 ---------------------------------------------------
 ---------------------------------------------------
 ---------------------------------------------------
 -12-12-12-12-12-12-12--11-11-11-11-11-11-11--------
 -10-10-10-10-10-10-10---9--9--9--9--9--9--9--------

Laughing Man in the Devil Mask The Laughing Man in the Devil Mask
 
 ----------------------------------------------------
 -12~---12~---12~---12~---10~---10~---10~---10~------
 ----12~---12~---12~---12~---10~---10~---10~---10~---
 ----------------------------------------------------
 ----------------------------------------------------
 ----------------------------------------------------

[G] [G] [G] [G] [G] [G] [G] [F] [F] [F] [F] [F] [F] [F] 
 
 ----------------------------------------------------
 ----------------------------------------------------
 -12-12-12-12-12-12-12--10--10--10--10--10--10--10---
 -12-12-12-12-12-12-12--10--10--10--10--10--10--10---
 -10-10-10-10-10-10-10---8---8---8---8---8---8---8---
 ----------------------------------------------------

I'm laughing, I'm laughing, you're burning, you're burning
 
 ----------------------------------------------------
 -15~---15~---15~---15~---14~---14~---14~---14~------
 ----14~---14~---14~---14~---13~---13~---13~---13~---
 ----------------------------------------------------
 ----------------------------------------------------
 ----------------------------------------------------

[D] [D] [D] [D] [D] [D] [D] [C#] [C#] [C#] [C#] [C#] [C#] [C#] 
 
 ---------------------------------------------------
 ---------------------------------------------------
 ---------------------------------------------------
 ---------------------------------------------------
 -12-12-12-12-12-12-12--11-11-11-11-11-11-11--------
 -10-10-10-10-10-10-10---9--9--9--9--9--9--9--------

The Laughing Man in the Devil Mask The Laughing Man in the Devil Mask
 
 ----------------------------------------------------
 -12~---12~---12~---12~---10~---10~---10~---10~------
 ----12~---12~---12~---12~---10~---10~---10~---10~---
 ----------------------------------------------------
 ----------------------------------------------------
 ----------------------------------------------------

[G] [G] [G] [G] [G] [G] [G] [F] [F] [F] [F] [F] [F] [F] 
 
 ----------------------------------------------------
 ----------------------------------------------------
 -12-12-12-12-12-12-12--10--10--10--10--10--10--10---
 -12-12-12-12-12-12-12--10--10--10--10--10--10--10---
 -10-10-10-10-10-10-10---8---8---8---8---8---8---8---
 ----------------------------------------------------

Burn! Burn! Burn while I'm laughing
 
 --------------------------------------
 --------------------------------------
 --------------------------------------
 --------------------------------------
 --------------------------------------
 -0h1h3p0-0h1h3p0---0h1h3p0-0h1h3p0----


Important: The song above is NOT stored on the Chordie server. The original song is hosted at www.xguitar.com. Chordie works as a search engine and provides on-the-fly formatting. Chordie does not index songs against artists'/composers' will. To remove this song please click here.

Text color:
Chord color:
Chord grids: 
Font size:    
Page size: 

A A# C# D E F Fmaj7 G
Rate #1 of 1 versions

Login - add to songbook

SHARE PAGE  



You need to log in to post comments