Guitar Tabs, Chords and Lyrics
Major upgrade!! After one year development the new version of Chordie is now online! Please give feedback.


Eulogy   Tool

 
 --------------------------------------------------------------------------------

 


 


 


 (guitar 1)


 

 
 e--------------------------------
 b--(pluck between the bridge-----

 


 g--and tail piece on a Les Paul)-


 

 
 d-------------------------------- x36
 a--x-x-x-x--x-x-x-x--x-xxx-x-x---
 d--------------------------------

 


 


 *guitar 2 starts on 32nd bar of guitar 1)


 


 (guitar 2, faint)


 x4


 

 
 e-------------------------------|--------
 b-------------------------------|--------
 g-------------------------------|--------
 d-------------------------------|--2-----
 a-------------------------------|--2-----
 d--2-2-2-2--2-2-2-2--2-2-0000---|--2-----

 


 


 (one guitar)


 


 *rest 3 bars*


 


 (flange)


 


 *lightly hit E5 chord*


 


 (distortion)


 


 

 
 e--------------
 b--------------
 g--------------
 d----2--------- x4
 a----2---------
 d--0-2---------
 e------------------------------
 b------------------------------
 g------------------------------
 d------------------------------ x9
 a------------------------------
 d--2-2-2-2-x-xx-2-2--2-2-0000--
 pm - - - - - - - - - - - -|
 e--------------------------
 b--------------------------
 g--------------------------
 d--------------------------
 a--------------------------
 d--2-2-2-2---2-2-2-2-------
 pm - - - - - - -|

 


 


 (flange off)


 


 

 
 e--------------
 b--------------
 g--------------
 d--7--7-7-9----
 a--7--7-7-9----
 d--7--7-7-9----
 e--------------------------------------------------------------------------------
 b--------------------------------------------------------------------------------
 g--------------------------------------------------------------------------------
 d--0h2-2--0-0h2-2--0-0h2--0-5-5-5-5-x-9---0h2-2--0-0h2-2--0-0h2--0-7-7-7-7-x-9--- x3
 a--0h2-2--0-0h2-2--0-0h2--0-5-5-5-5-x-9---0h2-2--0-0h2-2--0-0h2--0-7-7-7-7-x-9---
 d--0h2-2--0-0h2-2--0-0h2--0-5-5-5-5-x-9---0h2-2--0-0h2-2--0-0h2--0-7-7-7-7-x-9---
 e---------------------------------------------------------------------
 b-----------------------------------------------------------(flange)--
 g---------------------------------------------------------------------
 d--0h2-2--0-0h2-2--0-0h2--0-5-5-5-5-x-9---0h2-2--0-0h2-2--0--2-2-2----
 a--0h2-2--0-0h2-2--0-0h2--0-5-5-5-5-x-9---0h2-2--0-0h2-2--0--2-2-2----
 d--0h2-2--0-0h2-2--0-0h2--0-5-5-5-5-x-9---0h2-2--0-0h2-2--0--2-2-2----
 e------------------------------
 b------------------------------
 g------------------------------
 d------------------------------ x4
 a------------------------------
 d--2-2-2-2---2-2-2-2--2-2-0000--
 pm - - - - - - - - - - - -|

 


 


 (flange off)


 


 

 
 e------------------------------
 b------------------------------
 g------------------------------
 d------------------------------ x4
 a------------------------------
 d--2-2-2-2---2-2-2-2--2-2-0000--
 pm - - - - - - - - - - - -|
 e---------------------------
 b---------------------------
 g---------------------------
 d--2-2-2-2--2-2-2-2--2h3-0-- x3
 a--2-2-2-2--2-2-2-2--2h3-0--
 d--2-2-2-2--2-2-2-2--2h3-0--
 e---------------------------
 b---------------------------
 g---------------------------
 d--2-2-2-2--2-2-2-2---------
 a--2-2-2-2--2-2-2-2---------
 d--2-2-2-2--2-2-2-2---------
 e--------------
 b--------------
 g--------------
 d--7--7-7-9----
 a--7--7-7-9----
 d--7--7-7-9----
 e--------------------------------------------------------------------------------
 b--------------------------------------------------------------------------------
 g--------------------------------------------------------------------------------
 d--0h2-2--0-0h2-2--0-0h2--0-5-5-5-5-x-9---0h2-2--0-0h2-2--0-0h2--0-7-7-7-7-x-9---
 a--0h2-2--0-0h2-2--0-0h2--0-5-5-5-5-x-9---0h2-2--0-0h2-2--0-0h2--0-7-7-7-7-x-9---
 d--0h2-2--0-0h2-2--0-0h2--0-5-5-5-5-x-9---0h2-2--0-0h2-2--0-0h2--0-7-7-7-7-x-9---
 e--------------------------------------------------------------------------------
 b--------------------------------------------------------------------------------
 g--------------------------------------------------------------------------------
 d--0h2-2--0-0h2-2--0-0h2--0-5-5-5-5-x-9---0h2-2--0-0h2-2--0-0h2--0-7-7---x-7-9---
 a--0h2-2--0-0h2-2--0-0h2--0-5-5-5-5-x-9---0h2-2--0-0h2-2--0-0h2--0-7-7---x-7-9---
 d--0h2-2--0-0h2-2--0-0h2--0-5-5-5-5-x-9---0h2-2--0-0h2-2--0-0h2--0-7-7---x-7-9---
 e--------------------------------------------------------------------------------
 b--------------------------------------------------------------------------------
 g--------------------------------------------------------------------------------
 d--0h2-2--0-0h2-2--0-0h2--0-5-5-5-5-x-9---0h2-2--0-0h2-2--0-0h2--0-7-7-7-7-x-9---
 a--0h2-2--0-0h2-2--0-0h2--0-5-5-5-5-x-9---0h2-2--0-0h2-2--0-0h2--0-7-7-7-7-x-9---
 d--0h2-2--0-0h2-2--0-0h2--0-5-5-5-5-x-9---0h2-2--0-0h2-2--0-0h2--0-7-7-7-7-x-9---
 e----------------------------------------
 b--8--8--8--8--8--12--10-10-10-10-10-12--
 g--7--7--7--7--7--11--9--9--9--9--9--11--
 d--5--5--5--5--5--9---7--7--7--7--7--9--- x3
 a--5--5--5--5--5--9---7--7--7--7--7--9---
 d--5--5--5--5--5--9---7--7--7--7--7--9---
 e--------------------------
 b--8--8--8--8--8--12-10-8--
 g--7--7--7--7--7--11-9--7--
 d--5--5--5--5--5--9--7--5--
 a--5--5--5--5--5--9--7--5--
 d--5--5--5--5--5--9--7--5--
 e------------------------------
 b------------------------------
 g------------------------------
 d--0-2-2--0-/-10-5-5--0-5h7-0-- x3
 a--0-2-2--0-/-10-5-5--0-5h7-0--
 d--0-2-2--0-/-10-5-5--0-5h7-0--
 e------------------------------
 b------------------------------
 g------------------------------
 d--0-2-2--0-/-10-5-5--0-6b-----
 a--0-2-2--0-/-10-5-5--0-6b-----
 d--0-2-2--0-/-10-5-5--0-6b-----

 


 


 (flange)


 


 

 
 e--------------------------
 b--------------------------
 g--------------------------
 d--0-2-2-x-0-5-5--0-5h7-0-- x4
 a--0-2-2-x-0-5-5--0-5h7-0--
 d--0-2-2-x-0-5-5--0-5h7-0--

 


 


 *let last chord ring*


 


 *rest*


 


 

 
 e----------------------------------------------------------------
 b----------------------------------------------------------------
 g----------------------------------------------------------------
 d--12--------------------16--x///-x///---------16--x\\\--x///----
 a--12---x///////------14--------------------14-------------------
 d--12--------------14--------------------14----------------------
 e----------------------------------------------------
 b----------------------------------------------------
 g----------------------------------------------------
 d--------16-------------------------16---0-----------
 a-----14-----x///-/-/-/-///------14------0-----------
 d--14-------------------------14---------0-----------
 e----------------------------------------------------
 b----------------------------------------------------
 g----------------------------------------------------
 d--------16--------------------16----0----17-16------
 a-----14--------------------14-------0----------17---
 d--14--------------------14----------0---------------
 e----------------------------------------------------
 b----------------------------------------------------
 g----------------------------------------------------
 d--------16--x///---------------16---0---------------
 a-----14----------x///-------14------0---------------
 d--14---------------------14---------0---------------

 


 


 (flange off)


 


 

 
 e-----------------------------------
 b-----------------------------------
 g-----------------------------------
 d----------------------------------- x4
 a-----------------------------------
 d-0-2-2-2-0-0-0-3-3-0-5-5-2-2-0-0---
 pm - - - - - - - - - - - - - - |
 e--------------------------
 b--------------------------
 g--------------------------
 d--0-2--0-0-3-0-5\2-2-0-2-- x4
 a--0-2--0-0-3-0-5\2-2-0-2--
 d--0-2--0-0-3-0-5\2-2-0-2--

 


 


 (as seen in a video)


 

 
 e--------------------
 b--5-----------------
 g--4-x-x-4-x-5-------
 d--2-x-x-4-x-5-x-5/-- x3
 a----x-x-2-x-3-x-5/--
 d--------------x-5/--
 e----------------------------
 b--5-------------------------
 g--4-x-x-4-x-5---------------
 d--2-x-x-4-x-5-x-5---0-------
 a----x-x-2-x-3-x-5---0-------
 d--------------x-5---0-------

 


 


 *rest for 4 bars*


 


 

 
 e--------------
 b--------------
 g--------------
 d--2-2-2-2----- x10
 a--2-2-2-2-----
 d--2-2-2-2-----

 


 pm - -|


 


 (flange and delay)


 


 

 
 e--------
 b--------
 g--------

 


 [d--2222--]  


 [a--2222--]  


 [d--2222--] pm-|


 


 

 
 e-----------------
 b-----------------
 g-----------------
 d--------16br----- x4
 a-----14----------
 d--14-------------
 e------------------------
 b------------------------
 g------------------------
 d------4b-------5--4-0--- x4
 a----2--------2----------
 d--2--------2------------
 e---------------------------------------------------------
 b---------------------------------------------------------
 g---------------------------------------------------------
 d--12-14-12-14-12-14-12-14-12-14-12-14-12-14-12-14-12-14--
 a---------------------------------------------------------
 d---------------------------------------------------------
 ph - - - - - - - - - - - - - - - - - - - - - - - - -|
 e---------------------------------------------------------------------------
 b---------------------------------------------------------------------------
 g---------------------------------------------------------------------------
 d--12-14-12-14-12-14-12-14-12-14-12-14-12-14-12-14-12-14-------12-14--------
 a--------------------------------------------------------12-14-------12-14--
 d---------------------------------------------------------------------------
 ph - - - - - - - - - - - - - - - - - - - - - - - - - - - - - - - - - -|
 e-------------------------------
 b-------------------------------
 g-------------------------------
 d------------------------------- x3
 a-------------------------------
 d--12-14-12-14-12-14-12-14~~~---
 ph - - - - - - - - - -|
 e-------------------
 b-------------------
 g-------------------
 d-------------------
 a-------------------
 d--15-\\\\\\\\------
 e--------------------------
 b--------------------------
 g--------------------------
 d--0-2--0-0-3-0-5\2-2-0-2-- x4
 a--0-2--0-0-3-0-5\2-2-0-2--
 d--0-2--0-0-3-0-5\2-2-0-2--
 e-------------------
 b-------------------
 g-------------------
 d--9-xx-9-x-10-x-7-- x4
 a--9-xx-9-x-10-x-7--
 d--9-xx-9-x-10-x-7--

 


 


 (as seen in a video)


 

 
 e---------------------------------------------
 b---------------------------------------------
 g--9--9-9-9--9-9-9/10-10----------------------
 d--9--9-9-9--9-9-9/10-10--10--10--7--7-\\-0---
 a--7--7-7-7--7-7-7/8--8---10--10--7--7-\\-0---
 d-------------------------10--10--7--7-\\-0---
 e---------------------------------
 b---------------------------------
 g--9--9-9-9--9-9-9/10-10----------
 d--9--9-9-9--9-9-9/10-10--10--10--
 a--7--7-7-7--7-7-7/8--8---10--10--
 d-------------------------10--10--
 e-----------
 b-----------
 g-----------
 d--2-2-2-2-- x7
 a--2-2-2-2--
 d--2-2-2-2--
 --------------------------------------------------------------------------------


Important: The song above is NOT stored on the Chordie server. The original song is hosted at www.xguitar.com. Chordie works as a search engine and provides on-the-fly formatting. Chordie does not index songs against artists'/composers' will. To remove this song please click here.

This song is displayed as text-only. Transposing and tuning is only available for chordpro-songs.
Rate #3 of 5 versions

Jango Player

Login - add to songbook

SHARE PAGE  




You need to log in to post comments