Guitar Tabs, Chords and Lyrics
Major upgrade!! After one year development the new version of Chordie is now online! Please give feedback.


H.   Tool

 
 --------------------------------------------------------------------------------

 


 


 


 *rest for 4 bars*


 


 (distortion)


 


 *feedback*


 


 

 
 e---------------------------------------------
 b--3----------------3--------------2-----15---
 g--2----------------2--------------3-----14---
 d--0--*fours bars*--0--*2 bars*-xx-0-----0----
 a--0----------------0-----------xx-0-----0----
 d--0----------------0-----------xx-0-----0----

 


 


 (clean with flange and delay)


 


 *slighty palm muted A and D strings*


 


 

 
 e-----------------------------------------------
 b-----------------------------------------------
 g-----------5----5h7p5--------------5----5p4----
 d------7------77-------7-------7------77-----5-- x2
 a--5-5---88----------------5-5---88-------------
 d-----------------------------------------------
 e---------------------------------------------
 b---------------------------------------------
 g---------------------------------------------
 d--7----5---7h8-7---7--5----------------5-----
 a-------------------------7--5----3h5-x----5--
 d---------------------------------------------
 e-----------------------------------------------
 b-----------------------------------------------
 g-----------5----5h7p5--------------5----5p4----
 d------7------77-------7-------7------77-----5--
 a--5-5---88----------------5-5---88-------------
 d-----------------------------------------------
 e--------------------------------------------------------------------------
 b--------------------------------------------------------------------------
 g--------------------------------------------------------------------------
 d------7---5-------------7---5-------------7---5-------------7-----5-------
 a--5-5---8---7-0-5---5-5---8---7-5-0---5-5---8---7-0-5---5-5---8---5--5-0--
 d------------------------------------------------------------------5--5-0--
 e----------------------------------------
 b----------------------------------------
 g----------------------------------------
 d------7---5---------------7-----5------- x2
 a--5-5---8---7-0-5-----5-5---8---5--5-0--
 d--------------------------------5--5-0--
 e--------------------
 b--------------------
 g--------------------
 d------7-----5------- x4
 a--5-5---8---5--5-0--
 d------------5--5-0--

 


 


 (distortion)


 


 

 
 e--------------------------------
 b--------------------------------
 g--------------------------------
 d--0--------------0--------------
 a--0---x\\\\\\----0---x///////---
 d--0--------------0--------------

 


 


 (flange off)


 


 (clean)


 


 

 
 e-----------------------------------------------------------------------
 b-----------------------------------------------------------------------
 g-----------------------------------------------------------------------
 d-----------------------------------------------------------------------
 a-----0---------------0----------------0---------------0---------3p2----
 d--0----3---3-0----0----3--5-x-5----0----3---3-0----0----3---3h5-----5--
 pm - - - - - - - - - - - - - - - - - - - - - - - - - - - - - - - - -|
 e------------------------------------------------------------------------
 b------------------------------------------------------------------------
 g------------------------------------------------------------------------
 d---------------------------------------5p0------------------------------
 a-----0---------3-------------0-----3h5-----3h5-------0---------3--------
 d--0----3---3h5---5-3p0----0----3------------------0----3---3h5---5-3p0--
 pm - - - - - - - - - - - - - - - - - - - - - - - - - - - - - - - - - |
 e------------------------
 b------------------------
 g------------------------
 d---------------5p0------
 a-----0-----3h5-----3p0--
 d--0----3----------------
 pm - - - - - - - - - |
 e--------------------------------------------------------------------------
 b--------------------------------------------------------------------------
 g--------------------------------------------------------------------------
 d------7---5-------------7---5-------------7---5-------------7-----5-------
 a--5-5---8---7-0-5---5-5---8---7-5-0---5-5---8---7-0-5---5-5---8---5--5-0--
 d------------------------------------------------------------------5--5-0--
 e----------------------------------------
 b----------------------------------------
 g----------------------------------------
 d------7---5---------------7-----5------- x2
 a--5-5---8---7-0-5-----5-5---8---5--5-0--
 d--------------------------------5--5-0--
 e--------------------
 b--------------------
 g--------------------
 d------7-----5------- x7
 a--5-5---8---5--5-0--
 d------------5--5-0--
 e----------------
 b----------------
 g----------------
 d------7---------
 a--5-5---8b------
 d----------------

 


 


 (distortion)


 


 

 
 e-----------------------------------------------------------------------
 b-----------------------------------------------------------------------
 g-----------------------------------------------------------------------
 d--0--7--3--5-------0--7--3--5-------0--7--3--5-------0--7--3--5-/-10---
 a--0--7--3--5--5p0--0--7--3--5--5p0--0--7--3--5--5p0--0--7--3--5-/-10---
 d--0--7--3--5--5p0--0--7--3--5--5p0--0--7--3--5--5p0--0--7--3--5-/-10---
 e-----------------------------------------------------------------------------
 b-------------------------------------------------------------------(flange)--
 g-----------------------------------------------------------------------------
 d--0--7--3--5-------0--7--3--5---10----0--7--3--5-------0--7--3--5---0--------
 a--0--7--3--5--5p0--0--7--3--5---10----0--7--3--5--5p0--0--7--3--5---0--------
 d--0--7--3--5--5p0--0--7--3--5---10----0--7--3--5--5p0--0--7--3--5---0--------

 


 


 *rest for 12 bars*


 


 (flange)


 


 

 
 e----------------
 b----------------
 g----------------
 d---------10h12-- x43
 a--10h12---------
 d----------------
 e--------------------------------
 b--------------------------------
 g--------------------------------
 d---------10h12------------------ x15
 a--10h12--------10h12------------
 d---------------------10h12------
 e-----------------------------
 b-----------------------------
 g-----------------------------
 d---------10h12---------------
 a--10h12--------10h12-10h12---
 d-----------------------------
 e---------------------------------------------------------------------------------------
 b---------------------------------------------------------------------------------------
 g---------------------------------------------------------------------------------------
 d---------------------------------------------------------------------------------------
 a--12--12--12--12-12-12\10-10-10--10-10-10-10/12-12-12--12-12-12-12/13-13-13--13-13-13--
 d---------------------------------------------------------------------------------------
 e------------------------------------------------------------------------
 b------------------------------------------------------------------------
 g------------------------------------------------------------------------
 d------14----12~-------14----12~-------15----12~--12-12-12/13-13-13-13b--
 a--12-----15-------12-----15-------12-----14-----------------------------
 d------------------------------------------------------------------------

 


 


 (flange off)


 


 

 
 e-------------------------------------------------------------------------------
 b-------------------------------------------------------------------------------
 g-------------------------------------------------------------------------------
 d--8-8-8-8-8-8-8-xx-5-5-5-5-5-5-5-xx-10-10-10-10-10-10-10-xx-xx-8-8-8-8-8-8-8---
 a--8-8-8-8-8-8-8-xx-5-5-5-5-5-5-5-xx-10-10-10-10-10-10-10-xx-xx-8-8-8-8-8-8-8---
 d--8-8-8-8-8-8-8-xx-5-5-5-5-5-5-5-xx-10-10-10-10-10-10-10-xx-xx-8-8-8-8-8-8-8---
 pm - - - - - - - - - - - - - - - - - - - - - - - - - - - - - - - - - -|
 e-------------------------------------------------------------------------------
 b-------------------------------------------------------------------------------
 g-------------------------------------------------------------------------------
 d--8-------8-8-8-8----5-5-5-5-5-5-5--/-10----------------10---0-----------------
 a--8-------8-8-8-8----5-5-5-5-5-5-5--/-10----------------10---0-----------------
 d--8-------8-8-8-8----5-5-5-5-5-5-5--/-10-10-10-10-10-10-10---0-----------------

 


 


 (distortion)


 


 

 
 e-----------------------------------
 b-----------------------------------
 g-----------------------------------
 d--3p0-0-1p0-0-3p0-0-0-3p0-1p0-3-4-- x4
 a--3p0-0-1p0-0-3p0-0-0-3p0-1p0-3-4--
 d--3p0-0-1p0-0-3p0-0-0-3p0-1p0-3-4--

 


 


 solo


 


 (with wah)


 


 

 
 e------------------------------------------------------------------------
 b------------------------------------------------------------------------
 g------------------------------------------------------------------------
 d--//14-[tremolo picking w/wah]--14/12-12-10/12-[tremolo picking w/wah]--
 a------------------------------------------------------------------------
 d------------------------------------------------------------------------
 e----------------------------------------------------------------------------
 b----------------------------------------------------------------------------
 g----------------------------------------------------------------------------
 d--\7--[tremolo picking w/wah]--7\5-5-3/5--5--0--0-[tremolo picking w/wah]---
 a----------------------------------------------------------------------------
 d----------------------------------------------------------------------------
 e-------------------
 b--3-------3--------
 g--5br-----5br------
 d-------------------
 a-------------------
 d-------------------
 e--------------------------------
 b--------------------------------
 g--------------------------------
 d--0--0-1--0-3--0-5--0-/-10-12--- x2
 a--0--0-1--0-3--0-5--0-/-10-12---
 d--0--0-1--0-3--0-5--0-/-10-12---
 e----------------------------------
 b----------------------------------
 g----------------------------------
 d-xx-xx-0-1--0-3--0-5--0-/-10-12--- x2
 a-xx-xx-0-1--0-3--0-5--0-/-10-12---
 d-xx-xx-0-1--0-3--0-5--0-/-10-12---
 e--------------------------------
 b--------------------(flange)----
 g--------------------------------
 d--0--0-1--0-3--0-5--0-----------
 a--0--0-1--0-3--0-5--0-----------
 d--0--0-1--0-3--0-5--0-----------

 


 


 *rest*


 


 (clean)


 


 

 
 e------------------------------
 b------------------------------
 g------------------------------
 d---7----7--5-----7--5----3----
 a------------------------------
 d------------------------------
 --------------------------------------------------------------------------------


Important: The song above is NOT stored on the Chordie server. The original song is hosted at www.xguitar.com. Chordie works as a search engine and provides on-the-fly formatting. Chordie does not index songs against artists'/composers' will. To remove this song please click here.

This song is displayed as text-only. Transposing and tuning is only available for chordpro-songs.
Rate #1 of 1 versions

Jango Player

Login - add to songbook

SHARE PAGE  




You need to log in to post comments