Guitar Tabs, Chords and Lyrics
Major upgrade!! After one year development the new version of Chordie is now online! Please give feedback.


Lost Realist  Trapt

Trapt - Lost Realist
Album - Someone in Control
This is another great song off the New Trapt Album - Someone in Control - Enjoy!
Email: Mrserv0n18@aol.com - questions/comments/addons
Standard Tuning
Intro/Verse - 2 guitars, one fill, one rhythm
Guitar 1 - Clean
 
 e|------------------------------------------
 B|------------------------------------------
 G|------6-6--6-6---6-6---6------------------
 D|-------------------------6---------------- Repeat to prechorus
 A|--4-4----4-----4-----4-------------------- Guitar 2 just strums the C# Barchord in the backgroud
 E|------------------------------------------

Pre- Chorus (0:53) Clean/Muted Rhythm
[C#]  
 
 e|------------------------------------------
 B|---4-------------------------------------- Guitar 2 palm mute C# for rhythm
 G|---6---8-6-5---6--------------------------
 D|---6---------6---------------------------- Guitar 1 play fill
 A|---4--------------------------------------
 E|---4--------------------------------------

Chorus (1:09) Distorted
 
 e|------------------------------------------
 B|------------------------------------------
 G|--6-6-6-6-6-3-3-3-------------------------
 D|--6-6-6-6-6-3-3-3-6-6---------------------
 A|--4-4-4-4-4-1-1-1-6-6---------------------
 E|------------------4-4---------------------

Guitar 1 - Verse - Clean
 
 e|------------------------------------------
 B|------------------------------------------
 G|------6-6--6-6---6-6---6------------------
 D|-------------------------6---------------- Repeat to prechorus
 A|--4-4----4-----4-----4-------------------- Guitar 2 just strums the C# Barchord in the backgroud
 E|------------------------------------------

PreChorus - Clean/Muted Rhythm
[C#]  
 
 e|------------------------------------------
 B|---4-------------------------------------- Guitar 2 palm mute C# for rhythm
 G|---6---8-6-5---6--------------------------
 D|---6---------6---------------------------- Guitar 1 play fill
 A|---4--------------------------------------
 E|---4--------------------------------------

Chorus - Distorted
 
 e|------------------------------------------
 B|------------------------------------------
 G|--6-6-6-6-6-3-3-3-------------------------
 D|--6-6-6-6-6-3-3-3-6-6---------------------
 A|--4-4-4-4-4-1-1-1-6-6---------------------
 E|------------------4-4---------------------

Interlude (2:40) Clean
 
 e|------------------------------------------
 B|------------------------------------------
 G|6-6-6-6-6-6-6-6-6-8-8-8-8-8-8-8-8--------- x2
 D|------------------------------------------
 A|------------------------------------------
 E|------------------------------------------
 e|------------------------------------------
 B|------------------------------------------
 G|6-6-6-6-6-6-6-6-6-8-8-8-8-8-8-5-6-8-6-5--- x2
 D|---------------------------------------6--
 A|------------------------------------------
 E|------------------------------------------

PreChorus - Clean/Muted Rhythm
[C#]  
 
 e|------------------------------------------
 B|---4-------------------------------------- Guitar 2 palm mute C# for rhythm
 G|---6---8-6-5---6--------------------------
 D|---6---------6---------------------------- Guitar 1 play fill
 A|---4-------------------------------------- Repeat as needed
 E|---4--------------------------------------

Chorus - Distorted
 
 e|------------------------------------------
 B|------------------------------------------
 G|--6-6-6-6-6-3-3-3-------------------------
 D|--6-6-6-6-6-3-3-3-6-6--------------------- Repeat till outro
 A|--4-4-4-4-4-1-1-1-6-6---------------------
 E|------------------4-4---------------------

Outro: Just switch to clean and play C# lightly as it fades out.

Important: The song above is NOT stored on the Chordie server. The original song is hosted at www.xguitar.com. Chordie works as a search engine and provides on-the-fly formatting. Chordie does not index songs against artists'/composers' will. To remove this song please click here.

Text color:
Chord color:
Chord grids: 
Font size:    
Page size: 

C#
Rate #1 of 1 versions

Jango Player

Login - add to songbook

SHARE PAGE  




You need to log in to post comments