Guitar Tabs, Chords and Lyrics
Major upgrade!! After one year development the new version of Chordie is now online! Please give feedback.


Flowers in the Window  Travis

TRAVIS - FLOWERS IN THE WINDOW
Written by Fran Healy
Tabbed by Stu Chown(stickler@another.com)
GTR 1 is an acoustic guitar which plays the chords(below) nad GTR 2 is an electric which plays some lead during the verses
and middle section.
Chords
[C] [C/B] [Am] [D7] [Fm] [G] [F]  
 
 E-0--0--0---2--1--3-----
 B-1--1--1---1--1--3--1--
 G-0--0--2---2--1--0--2--
 D-2-----2---0--3--0--3--
 A-3--2--0------3--2--3--
 E-3---------------3-----

INTRO
[C] [C/B] [Am] [D7] [Fm] [G]  
[C] [C/B] [Am] [D7] [Fm] [G]  
VERSE 1
[G]When I first met you I was [F]cold
[G]A melting snowman I was[Am] told
[G]But there was no one there to [F]hold
Before I swore, that I wo[G]uld be alone forever more
CHORUS
[C]Wow, [C/B]look at you now,
[Am]Flowers in the window
Its such a l[D7]ovely day
And I'm [Fm]glad you feel the s[G]ame, 'cos they stand u[C]p
[C/B]I'm in the crowd
[Am]You are one in a million and I l[D7]ove you so,
Lets [Fm]watch the flowers g[G]row
VERSE 2
GTR 2
[G] [F] [G] [Am]  
 
 E-10----10----10-----10h12p10---8----8-----8-----8-------10----10----10-----10--------5----8----12--12---
 B--------------------------------------------------------------------------------------------------------
 G----12----12-----12--------------10----10----10----10------12-----12-----12----12-----------------------
 D--------------------------------------------------------------------------------------------------------
 A--------------------------------------------------------------------------------------------------------
 E--------------------------------------------------------------------------------------------------------

[G] [F] [G]  
 
 E-10----10----10-----10h12p10---8----8-----8-----8------8------8-----8-----8------10----10----10----10------
 B-----------------------------------------------------------------------------------------------------------
 G----12----12-----12--------------10----10----10----10-----10-----10----10----10-----12----12----12-----12--
 D-----------------------------------------------------------------------------------------------------------
 A-----------------------------------------------------------------------------------------------------------
 E-----------------------------------------------------------------------------------------------------------

[G]There is no reason to feel [F]bad
[G]But there are many seasons to fe[Am]el bad, sad, now
[G]Its just a bunch of feelings that we've [F]had
To hope that I am her[G]e to help you with the load
CHORUS
[C]Wow, [C/B]look at you now,
[Am]Flowers in the window
Its such a l[D7]ovely day
And I'm [Fm]glad you feel the s[G]ame, 'cos they stand u[C]p
[C/B]I'm in the crowd
[Am]You are one in a million and I l[D7]ove you so,
Lets [Fm]watch the flowers g[G]row
MIDDLE
GTR 2 (Solo - Chorus melody)
 
 E--8--8---7-8-7-8---7-8-7-8-10-8-5---5-7--8----8---5-7--8-----8-----10-------8--8---7-8-7-8---7-8-7-8-10-8-5---
 B--------------------------------------------------------------------------------------------------------------
 G-------------------------------------------10------------10----10---------------------------------------------
 D--------------------------------------------------------------------------------------------------------------
 A--------------------------------------------------------------------------------------------------------------
 E--------------------------------------------------------------------------------------------------------------

GTR 1 repeats chorus chords over "la la la.." etc. sung in chorus melody
VERSE 3
[G]So now we're here and now is f[F]ine
[G]So far away from there and there is [Am]time, time, time
GTR 2
[G] [F] [G]  
 
 E-10----10----10-----10h12p10---8----8-----8-----8------8------8-----8-----8------10----10----10----10------
 B-----------------------------------------------------------------------------------------------------------
 G----12----12-----12--------------10----10----10----10-----10-----10----10----10-----12----12----12-----12--
 D-----------------------------------------------------------------------------------------------------------
 A-----------------------------------------------------------------------------------------------------------
 E-----------------------------------------------------------------------------------------------------------

[G]To plant these seeds and watch them g[F]row
So there'll be flowers i[G]n the window when we go
CHORUS
[C]Wow, [C/B]look at us now,
[Am]Flowers in the window
Its such a l[D7]ovely day
And I'm [Fm]glad you feel the s[G]ame, 'cos they stand u[C]p
[C/B]I'm in the crowd
[Am]You are one in a million and I l[D7]ove you so,
Lets [Fm]watch the flowers g[G]row
[C]Wow, [C/B]look at you now,
[Am]Flowers in the window
Its such a l[D7]ovely day
And I'm [Fm]glad you feel the s[G]ame, 'cos they stand u[C]p
[C/B]I'm in the crowd
[Am]You are one in a million and I l[D7]ove you so,
Lets [Fm]watch the flowers grow
GTR 2 basically repeats the solo here
[C] [C/B] [Am] [D7] [Fm] [G]  
[C] [C/B] [Am] [D7]  
Lets [Fm]watch the flowers....gr[C]ow

Important: The song above is NOT stored on the Chordie server. The original song is hosted at www.xguitar.com. Chordie works as a search engine and provides on-the-fly formatting. Chordie does not index songs against artists'/composers' will. To remove this song please click here.

Text color:
Chord color:
Chord grids: 
Font size:    
Page size: 

Am C C/B D7 F Fm G
Rate #1 of 8 versions

Login - add to songbook

SHARE PAGE  



You need to log in to post comments