Guitar Tabs, Chords and Lyrics
Major upgrade!! After one year development the new version of Chordie is now online! Please give feedback.


Indefinitely  Travis

TRAVIS - INDEFINITELY
Written by Fran Healy
Tabbed by Stu Chown(stickler@another.com)
GTR 1 (Acoustic) Capo at 2nd fret
GTR 2 (Electric) No capo
CHORDS (Relative to capo)
[G] [G/F#] [Em7] [Dsus4] [Am] [Em] [C] [A7] [Csus2] [B7]  
 
 E-3--3---3-----3-----0--0--0--0--3-----2--
 B-3--3---3-----3-----1--0--1--2--3-----0--
 G-0--0---0-----2-----2--0--0--0--0-----2--
 D-0--0---2-----0-----2--2--2--2--2-----1--
 A-2--0---2-----------0--2--3--0--3-----2--
 E-3--2---0--------------0--3--------------

INTRO
G G/F# Em G/F# x2
VERSE 1
[G]Every[G/F#] day in [Em7]every [Dsus4]way I'm fallin[G]'[G/F#] [Em7] [G/F#]
[G]Every[G/F#]thing that everyone says turns me [Am]on
[Em]Shine a light on m[C]e
[Em]So that everyone can [A7]see
That I w[G]anna stay h[Csus2]ere
[G]And if I l[Csus2]eave
GTR2(Relative to nut)
 
 E----------------------------------------------------------------------------
 B-10--12-10-9--10-9--7-9-7-9--10-12---10--12-10-9--10-9--7-9-7-9--10-12--10--
 G----------------------------------------------------------------------------
 D----------------------------------------------------------------------------
 A----------------------------------------------------------------------------
 E----------------------------------------------------------------------------

Over - G G/F# Em7 Dsus4
[F] [G/F#] [Em7] [G/F#]  
VERSE 2(Chords as Verse 1)
GTR2
[G] [G/F#] [Em7] [Dsus4] [G] [G/F#] [Em7] [G/F#] 
 
 E----------------------------------2-----------------------------------------------
 B-10-----9--------7--------------3-------------10--12-10-9--10-9--7-9-7-9--10-12---
 G------------------------------2---------------------------------------------------
 D----------------------------------------------------------------------------------
 A----------------------------------------------------------------------------------
 E----------------------------------------------------------------------------------

Time exists but just on your wrist so don't panic...
GTR2
 
 E------------------------
 B-10-----9--------7------
 G-------------------------

M[G]oments [G/F#]last and [Em7]lifetimes are lost in a [Am]day
[Em]So wind your watches down pl[C]ease
[Em]'Cos there is no time to l[A7]ose
And I'm g[G]onna stay h[Csus2]ere
And [G]if I be[Csus2]lieve
'Cos I w[G]anna stay [Csus2]here
So j[G]ust let me [Csus2]be
MIDDLE
[G]I could have seen the [B7]light
[C]Circling 'round your ref[Em]lection
[G] [B7] [C] [Em]  
And I'm [G]gonna stay h[Csus2]ere
In[G]definit[Csus2]ely
And I'm [G]gonna stay h[Csus2]ere
So [G]just let me [Csus2]be
In[G]definite[Csus2]ly
In[G]definite[Em]ly
In[G]definite[Em]ly
In[G]definite[Em]ly
(Just drums)
Indefinitely
Indefinitely

Important: The song above is NOT stored on the Chordie server. The original song is hosted at www.xguitar.com. Chordie works as a search engine and provides on-the-fly formatting. Chordie does not index songs against artists'/composers' will. To remove this song please click here.

Text color:
Chord color:
Chord grids: 
Font size:    
Page size: 

A7 Am B7 C Csus2 Dsus4 Em Em7 F G G/F#
Rate #1 of 5 versions

Jango Player

Login - add to songbook

SHARE PAGE  




You need to log in to post comments