Guitar Tabs, Chords and Lyrics
Major upgrade!! After one year development the new version of Chordie is now online! Please give feedback.


Safe  Travis

TRAVIS - SAFE
Written by Fran Healy
Tabbed by Stu Chown(stickler@another.com)
GTR 1 (Acoustic) Capo at 2nd fret
GTR 2 (Electric) No capo
CHORDS(Relative to capo)
C Fsus2 C* C7 F Bb Dm
 
 E-0--0----0--0--1-----1--
 B-2--1----1--1--1--3--3--
 G-0--0----0--3--2--3--2--
 D-2--3----4--2--3--3--0--
 A-3--3----3--3--3--1-----
 E-3----------------------

VERSE 1
C C* Fsus2
Take all the goods from all the bads
C C* Fsus2
And tell the people that you've gone away
C C* Fsus2
Now lift your head up to the sky
C C* Fsus2
Now you can tell apart the black from the white
C C* Fsus2
We waste the time they treasure dear
C C* Fsus2
My only thought is that they could be right
C C* Fsus2
Oh look there goes another year
C C* Fsus2
About as distant as a satellite
CHORUS
C C*
And I feel safe
So safe[Fsus2]
C C*
And I feel safe
So saf[Fsus2]e
And I feel sa[C]fe[C7]
So sa[F]fe
So saf[Bb]e
VERSE 2(Chords as Verse 1)
GTR 2
 
 E-5---5---4---4---3---3---3-3-2----5---5---4---4---3---3---3-3-2---
 B------------------------------------------------------------------
 G------------------------------------------------------------------
 D------------------------------------------------------------------
 A------------------------------------------------------------------
 E------------------------------------------------------------------ x2

The worlds a small child in the dark
My minds the same place as it's always been
The monster seen it fades so fast
Upon the breaking of another dream
CHORUS
GTR2
 
 E-5---5---4---4---3---3---3-3-2----5---5---4---4---3---3---3-3-2---
 B------------------------------------------------------------------
 G------------------------------------------------------------------
 D------------------------------------------------------------------
 A------------------------------------------------------------------
 E------------------------------------------------------------------

C C*
And I feel safe
So safe[Fsus2]
C C*
And I feel safe
So saf[Fsus2]e
GTR2 Riff 1
 
 E-----------------------------------------
 B-----------------------------------------
 G--9---9--7h9--7h9---7h9-7h9-7h9-7h9-7h9--
 D-----------------------------------------
 A-----------------------------------------
 E-----------------------------------------

And I feel sa[Dm]fe
I feel so brave
I'm not afraid of anything that I'm to sa[C]y
GTR2
[C]  
 
 E--0-0-0-0-0-0-1-0--
 B--1-1-1-1-1-1-1-1--
 G--0-0-0-0-0-0-0-0--
 D--2-2-2-2-2-2-2-2--
 A--3-3-3-3-3-3-3-3--
 E--3-3-3-3-3-3-3-3--

Dm (Repeat Riff 1)
And you're okay
Because you took the weight..[F].................
You've got to be just who you a[Bb]re
Who you are
C C* Fsus2 x2 (GTR 2 uses light humming and feedback)
VERSE 4(Chords as Verse 1)
When I was young things didn't last
My......................
Now I am older I can laugh
A dolly mixed up man with rotten teeth
CHORUS
GTR 2 (Riff 2)
 
 E-5---5---4---4---3---3---3-3-2----5---5---4---4---3---3---3-3-2---5---5---8---8---3---3---3-3-2---
 B--------------------------------------------------------------------------------------------------
 G--------------------------------------------------------------------------------------------------
 D--------------------------------------------------------------------------------------------------
 A--------------------------------------------------------------------------------------------------
 E--------------------------------------------------------------------------------------------------

C C*
And I feel safe
So saf[Fsus2]e
C C*
And I feel safe
So saf[Fsus2]e
C C*
And I feel safe
So saf[Fsus2]e
So sa[Bb]fe
(Repeat Riff 2)
C C*
And I feel safe
So saf[Fsus2]e
C C*
And I feel safe
So saf[Fsus2]e
C C*
And I feel safe
So saf[Fsus2]e
So sa[Bb]fe
C C* Fsus2 x2
End on C

Important: The song above is NOT stored on the Chordie server. The original song is hosted at www.xguitar.com. Chordie works as a search engine and provides on-the-fly formatting. Chordie does not index songs against artists'/composers' will. To remove this song please click here.

Text color:
Chord color:
Chord grids: 
Font size:    
Page size: 

Bb C C7 Dm F Fsus2
Rate #1 of 5 versions

Jango Player

Login - add to songbook

SHARE PAGE  




You need to log in to post comments