Guitar Tabs, Chords and Lyrics
Major upgrade!! After one year development the new version of Chordie is now online! Please give feedback.


The Deceived  Trivium

As recorded by Trivium
(From the 2005 Album ASCENDANCY)
Words by Matthew K. Heafy
Music by Matthew K. Heafy & Corey K. Beaulieu
Transcribed by Nick Thompson
Gtr I (D A D G B E) - 'Matthew K. Heafy'
Gtr II (D A D G B E) - 'Corey K. Beaulieu'
Gtr III (D A D G B E) - 'Fill'
Intro
Metal Q=210
F#5 N.C. F#5
[4/4] Gtrs I, II
 
 PM----------------------------|

Q S S E S S E S S E S S E S S E E E E E
 
 |----------------------|---------------------|
 |----------------------|---------------------|
 |----------------------|---------------------|
 |----------------------|---------------------|
 |-4--------------------|-------------------4-|
 |-4--4-4-4-4-4-4-4-4-4-|-4-4-4-4-4-4-4-6-7-4-|

N.C. F#5
 
 PM--------------|

+Q S S E S S E S S E Q Q E E E E
 
 |------------------------|----------------|
 |------------------------|----------------|
 |------------------------|----------------|
 |------------------------|----------------|
 |-(4)--------------------|-------------4--|
 |-(4)--4-4-4-4-4-4-4-4-4-|-0--7--6-4-2-4--|

N.C. F#5
 
 PM----------------------------|

+Q S S E S S E S S E S S E S S E E E E E
 
 |------------------------|---------------------|
 |------------------------|---------------------|
 |------------------------|---------------------|
 |------------------------|---------------------|
 |-(4)--------------------|-------------------4-|
 |-(4)--4-4-4-4-4-4-4-4-4-|-4-4-4-4-4-4-4-6-7-4-|

[D5]  
 
 PM--------------|

+Q S S E S S E S S E W
 
 |------------------------|------||
 |------------------------|------||
 |------------------------|------||
 |------------------------|------||
 |-(4)--------------------|-0----||
 |-(4)--4-4-4-4-4-4-4-4-4-|-0----||

Verse
$
F#5 N.C. F#5
 
 PM----------------------------|

Q S S E S S E S S E S S E S S E E E E E
 
 ||-----------------------|---------------------|
 ||o----------------------|---------------------|
 ||-----------------------|---------------------|
 ||-----------------------|---------------------|
 ||o-4--------------------|-------------------4-|
 ||--4--4-4-4-4-4-4-4-4-4-|-4-4-4-4-4-4-4-6-7-4-|

N.C. F#5
 
 PM--------------|

+Q S S E S S E S S E Q Q E E E E
 
 |------------------------|-----------------|
 |------------------------|-----------------|
 |------------------------|-----------------|
 |------------------------|-----------------|
 |-(4)--------------------|-------------4---|
 |-(4)--4-4-4-4-4-4-4-4-4-|-0--7--6-4-2-4---|

N.C. F#5
 
 PM----------------------------|

+Q S S E S S E S S E S S E S S E E E E E
 
 |------------------------|---------------------|
 |------------------------|---------------------|
 |------------------------|---------------------|
 |------------------------|---------------------|
 |-(4)--------------------|-------------------4-|
 |-(4)--4-4-4-4-4-4-4-4-4-|-4-4-4-4-4-4-4-6-7-4-|

[D5]  
 
 PM--------------|

+Q S S E S S E S S E W
 
 |------------------------|-------||
 |------------------------|------o||
 |------------------------|-------||
 |------------------------|-------||
 |-(4)--------------------|-0----o||
 |-(4)--4-4-4-4-4-4-4-4-4-|-0-----||

E5D5 N.C. E5 D5 N.C. F#5
Gtr I
 
 PM------------------| PM--------| PM| PM PM~

[E] [E] [E] [E] [E] [E] [E] [E] [E] [E] [E] [E] [E] [E] [E] [E] [+E] [E] [E] [E] [E] [E] [E] [E] [E] [E] [E] [E] [E] [E] [E] [E]  
 
 ||------------------|-----------------|-------------------|------------------|
 ||o-----------------|-----------------|-------------------|------------------|
 ||------------------|-----------------|-------------------|------------------|
 ||------------------|---------6-7-6---|-------------------|-7-----9---11-----|
 ||o-2p0-------------|---------------2-|-(2)p0-------------|----------------4-|
 ||--2p0-0-0-0-0-0-0-|-0-0-0-0-------2-|-(2)p0-0-0-0-0-0-0-|---0-0---0----0-4-|

|
| Gtr II
 
 | PM------------------| PM--------| PM| PM PM~

| E E E E E E E E E E E E E E E E +E E E E E E E E E E E E E E E E
 
 ||------------------|-----------------|-------------------|------------------|
 ||o-----------------|-----------------|-------------------|------------------|
 ||------------------|-----------------|-------------------|------------------|
 ||------------------|---------2-4-2---|-------------------|-4-----6----7-----|
 ||o-2p0-------------|---------------2-|-(2)p0-------------|----------------4-|
 ||--2p0-0-0-0-0-0-0-|-0-0-0-0-------2-|-(2)p0-0-0-0-0-0-0-|---0-0---0----0-4-|

N.C. F#5 N.C.
 
 ~~~ PM--------| PM| PM PM~~~~~~~~ PM--------|

[+E] [E] [E] [E] [E] [E] [E] [E] [E] [E] [E] [E] [E] [E] [E] [E] [+E] [E] [E] [E] [E] [E] [E] [E] [E] [E] [E] [E] [E] [E] [E] [E]  
 
 |-------------------|-----------------|-------------------|-------------------||
 |-------------------|-----------------|-------------------|------------------o||
 |-------------------|-----------------|-------------------|-6-4-----------4---||
 |-------------------|-7-----6---4-----|-------------------|-----7-6-4-6-7-----||
 |-(4)-4-------------|---------------4-|-(4)-4-------------|------------------o||
 |-(4)-4-4-4-4-4-4-4-|---4-4---4---4-4-|-(4)-4-4-4-4-4-4-4-|-------------------||

|
 
 | ~~~ PM--------| PM| PM PM~~~~~~~~ PM--------|

| +E E E E E E E E E E E E E E E E +E E E E E E E E E E E E E E E E
 
 |-------------------|-----------------|-------------------|-------------------||
 |-------------------|-----------------|-------------------|------------------o||
 |-------------------|-----------------|-------------------|-------------------||
 |-------------------|-7-----6---4-----|-------------------|-7-6-4-------4-6---||
 |-(4)-4-------------|---------------4-|-(4)-4-------------|-------7-5-7------o||
 |-(4)-4-4-4-4-4-4-4-|---4-4---4---4-4-|-(4)-4-4-4-4-4-4-4-|-------------------||

[E5D5]Gtrs I, [E5D5]II[F#D5] [A5D5G#D5F#5]
[E] [E] [E] [E] [E] [E] [E] [E] [E] [E] [E] [E] [E] [E] [E] [E]  
 
 ||------------------|-----------------|
 ||o-----------------|-----------------|
 ||------------------|-----------------|
 ||------------------|-----------------|
 ||o-2-0-0-0-2-0-0-0-|-4-0-0-7-0-6-0-4-|
 ||--2-0-0-0-2-0-0-0-|-4-0-0-7-0-6-0-4-|

N.C.
 
 PM--------------|

+Q S S E S S E S S E E E E E E E E E
 
 |------------------------|-------------------|
 |------------------------|-------------------|
 |------------------------|-------------------|
 |------------------------|-------------------|
 |-(4)--------------------|-------------------|
 |-(4)--4-4-4-4-4-4-4-4-4-|-4-6-6-7-7-9-9-11--|

[E5D5] [E5D5] [F#D5] [A5D5G#D5F#5]  
[E] [E] [E] [E] [E] [E] [E] [E] [E] [E] [E] [E] [E] [E] [E] [E]  
 
 |-----------------|-----------------|
 |-----------------|-----------------|
 |-----------------|-----------------|
 |-----------------|-----------------|
 |-2-0-0-0-2-0-0-0-|-4-0-0-7-0-6-0-4-|
 |-2-0-0-0-2-0-0-0-|-4-0-0-7-0-6-0-4-|

N.C.
 
 PM--------------|

+Q S S E S S E S S E E E E E E E E E
 
 |------------------------|-------------------||
 |------------------------|------------------o||
 |------------------------|-------------------||
 |------------------------|-------------------||
 |-(4)--------------------|------------------o||
 |-(4)--4-4-4-4-4-4-4-4-4-|-4S6-6S7-7S9-9S11--||

Pre-Chorus
D5 N.C. D5 N.C. D5 N.C.
Gtr I
[E] [E] [E] [E] [E] [E] [E] [E] [E] [E] [E] [E] [E] [E] [E] [E]  
 
 |----------------------------|-----------------------------------|
 |----------------------------|-----------------------------------|
 |----------------------------|-----------------------------------|
 |--0--0------------------0-0-|-------------------0-----0---------|
 |--0--0------------------0-0-|-------------------0-----0---------|
 |--0--0-<4>-<4>-<4>-<4>--0-0-|--<4>-<4>-<4>-<4>--0-----0-<4>-<4>-|

|
| Gtr II
| Q. Q. Q +Q Q S S E Q
 
 |----------------------------|-----------------------------------|
 |----------------------------|-----------------------------------|
 |-14--------13----------11---|-(11)-----14------13-14-13-11------|
 |----------------------------|-----------------------------------|
 |----------------------------|-----------------------------------|
 |----------------------------|-----------------------------------|

E5 N.C. E5 N.C. E5 N.C.
[E] [E] [E] [E] [E] [E] [E] [E] [E] [E] [E] [E] [E] [E] [E] [E]  
 
 |----------------------------|------------------------------------|
 |----------------------------|------------------------------------|
 |----------------------------|------------------------------------|
 |--2--2------------------2-2-|-------------------2-----2----------|
 |--2--2------------------2-2-|-------------------2-----2----------|
 |--2--2-<4>-<4>-<4>-<4>--2-2-|--<4>-<4>-<4>-<4>--2-----2-<4>-<4>--|

|
| Q. Q. Q +Q Q S S E Q
 
 |----------------------------|------------------------------------|
 |----------------------------|------------------------------------|
 |-14--------13---------------|----------14------13-14-13----------|
 |-----------------------14---|-(14)----------------------14-------|
 |----------------------------|------------------------------------|
 |----------------------------|------------------------------------|

F#5 N.C. F#5 N.C. F#5 N.C.
[E] [E] [E] [E] [E] [E] [E] [E] [E] [E] [E] [E] [E] [E] [E] [E]  
 
 |----------------------------|-----------------------------------|
 |----------------------------|-----------------------------------|
 |----------------------------|-----------------------------------|
 |--4--4------------------4-4-|-------------------4-----4---------|
 |--4--4------------------4-4-|-------------------4-----4---------|
 |--4--4-<4>-<4>-<4>-<4>--4-4-|--<4>-<4>-<4>-<4>--4-----4-<4>-<4>-|

|
| Q. Q. Q +Q Q S S E Q
 
 |----------------------------|-----------------------------------|
 |----------------------------|-----------------------------------|
 |-14--------13----------11---|-(11)-----14------13-14-13-11------|
 |----------------------------|-----------------------------------|
 |----------------------------|-----------------------------------|
 |----------------------------|-----------------------------------|

F#5 N.C. F#5 N.C.
[E] [E] [E] [E] [E] [E] [E] [E] [E] [E] [E] [E] [B]  
 
 |----------------------------|------------------------------||
 |----------------------------|------------------------------||
 |----------------------------|------------------------------||
 |--4--4------------------4-4-|------------------------------||
 |--4--4------------------4-4-|------------------------------||
 |--4--4-<4>-<4>-<4>-<4>--4-4-|-<4>-<4>-<4>-<4>--9\----------||

|
| Q. Q. Q E E E E E E E E
 
 |----------------------------|------------------------------||
 |----------------------------|-----12-----------------------||
 |-14--------13----------11---|-11------14--13--14--13-------||
 |----------------------------|------------------------16-14-||
 |----------------------------|------------------------------||
 |----------------------------|------------------------------||

Chorus
[D5] W +W
 
 ||------------------|------------------------|
 ||o-----------------|------------------------|
 ||------------------|------------------------|
 ||---0--------------|--(0)-------------------|
 ||o--0--------------|--(0)-------------------|
 ||---0--------------|--(0)-------------------|

|
| Q. Q. Q +Q Q S S E Q
 
 ||------------------|------------------------|
 ||o-----------------|------------------------|
 ||--14----13----11--|-(11)--14--13-14-13-11--|
 ||------------------|------------------------|
 ||o-----------------|------------------------|
 ||------------------|------------------------|

[E5] W +W
 
 |-----------------|------------------------|
 |-----------------|------------------------|
 |-----------------|------------------------|
 |--2--------------|--(2)-------------------|
 |--2--------------|--(2)-------------------|
 |--2--------------|--(2)-------------------|

|
| Q. Q. Q +Q Q S S E Q
 
 |-----------------|------------------------|
 |-----------------|------------------------|
 |-14----13--------|-------14--13-14-13-----|
 |-------------14--|-(14)---------------14--|
 |-----------------|------------------------|
 |-----------------|------------------------|

[F#5] W +W
 
 |-----------------|------------------------|
 |-----------------|------------------------|
 |-----------------|------------------------|
 |--4--------------|--(4)-------------------|
 |--4--------------|--(4)-------------------|
 |--4--------------|--(4)-------------------|

|
| Q. Q. Q +Q Q S S E Q
 
 |-----------------|------------------------|
 |-----------------|------------------------|
 |-14----13----11--|-(11)--14--13-14-13-11--|
 |-----------------|------------------------|
 |-----------------|------------------------|
 |-----------------|------------------------|

1.
[(C#)] W +W
 
 |-----------------|---------------------------||
 |-----------------|--------------------------o||
 |--6--------------|-(6)-----------------------||
 |--x--------------|-(x)-----------------------||
 |--4--------------|-(4)----------------------o||
 |-----------------|---------------------------||

|
| Q. Q. Q E E E E E E E E
 
 |-----------------|---------------------------||
 |-----------------|-----12-------------------o||
 |-14----13----11--|-11-----14-13-14-13--------||
 |-----------------|--------------------16-14--||
 |-----------------|--------------------------o||
 |-----------------|---------------------------||

2.
D.S.
N.C.
Q. Q. Q +Q Q S S E Q
 
 |---------------|--------------------||
 |---------------|--------------------||
 |---------------|--------------------||
 |--7----6----4--|-(4)---7--6--7-6-4--||
 |---------------|--------------------||
 |---------------|--------------------||

|
| Q. Q. Q +Q Q S S E Q
 
 |---------------|--------------------||
 |---------------|--------------------||
 |---------------|--------------------||
 |-11----9----7--|-(7)--11--9-11-9-7--||
 |---------------|--------------------||
 |---------------|--------------------||

Breakdown
[F#5]Gtrs I, II
W +W +W +W
 
 |----------|------------|------------|--------|
 |----------|------------|------------|--------|
 |----------|------------|------------|--------|
 |-4--------|-(4)--------|-(4)--------|-(4)----|
 |-4--------|-(4)--------|-(4)--------|-(4)----|
 |-4--------|-(4)--------|-(4)--------|-(4)----|

+W +W +W Q H.
 
 |------------|------------|------------|----------||
 |------------|------------|------------|----------||
 |------------|------------|------------|----------||
 |-(4)--------|-(4)--------|-(4)--------|-4--------||
 |-(4)--------|-(4)--------|-(4)--------|-4--------||
 |-(4)--------|-(4)--------|-(4)--------|-4--------||

Bridge
N.C.
Gtr I
Q. Q. Q Q. Q. Q Q. Q. Q Q. Q. Q
 
 ||-----------------|----------------|----------------|----------------|
 ||o----------------|----------------|----------------|----------------|
 ||-----------------|----------------|----------------|----------------|
 ||--------6-----7--|--9-----7----6--|-------6-----7--|--9-----7----6--|
 ||o--9-------------|----------------|--7-------------|----------------|
 ||-----------------|----------------|----------------|----------------|

|
| Gtr II
| Q. Q. Q Q. Q. Q Q. Q. Q Q. Q. Q
 
 ||-----------------|----------------|----------------|----------------|
 ||o----------------|----------------|----------------|----------------|
 ||-----------------|----------------|----------------|----------------|
 ||--------9----11--|-12----11----9--|-------9----11--|-12----11----9--|
 ||o-12-------------|----------------|-11-------------|----------------|
 ||-----------------|----------------|----------------|----------------|

Q. Q. Q Q. Q. Q Q. Q. Q Q. Q. Q
 
 |---------------|----------------|----------------|------------------||
 |---------------|----------------|----------------|-----------------o||
 |---------------|----------------|----------------|------------------||
 |------6-----7--|--9-----7----6--|-------6-----7--|--9-----7----6----||
 |-5-------------|----------------|--7-------------|-----------------o||
 |---------------|----------------|----------------|------------------||

|
| Q. Q. Q Q. Q. Q Q. Q. Q Q. Q. Q
 
 |---------------|----------------|----------------|------------------||
 |---------------|----------------|----------------|-----------------o||
 |---------------|----------------|----------------|------------------||
 |------9----11--|-12----11----9--|-------9----11--|-12----11----9----||
 |-9-------------|----------------|-11-------------|-----------------o||
 |---------------|----------------|----------------|------------------||

F#5 N.C. F#5
Gtrs I, II
 
 PM---------------------------------------------------

S S S S S S S S E Q. H S S S S S S S S
 
 |---------------------------|-------------------------|
 |---------------------------|-------------------------|
 |---------------------------|-------------------------|
 |---------------------------|-------------------------|
 |-4--4-4-4-4-4-4--4-4-------|---------4-4-4-4-4-4-4-4-|
 |-4--4-4-4-4-4-4--4-4-------|---------4-4-4-4-4-4-4-4-|

|
| Gtr III
| Q. Q. Q Q. Q. Q
 
 |---------------------------|-------------------------|
 |---------------------------|-------------------------|
 |---------------------------|-------------------------|
 |--------------6---------7--|-9----7----------6-------|
 |-9-------------------------|-------------------------|
 |---------------------------|-------------------------|

E5 N.C. E5
 
 ---------------------------------------------------|

S S S S S S S S E Q. H S S S S S S S S
 
 |---------------------------|---------------------------|
 |---------------------------|---------------------------|
 |---------------------------|---------------------------|
 |---------------------------|---------------------------|
 |-2--2-2-2-2-2-2--2-2-------|---------2-2-2-2-2-2-2-2---|
 |-2--2-2-2-2-2-2--2-2-------|---------2-2-2-2-2-2-2-2---|

|
| Q. Q. Q Q. Q. Q
 
 |---------------------------|---------------------------|
 |---------------------------|---------------------------|
 |---------------------------|---------------------------|
 |--------------6---------7--|-9----7----------6---------|
 |-7-------------------------|---------------------------|
 |---------------------------|---------------------------|

D5 N.C. D5
 
 PM---------------------------------------------------

S S S S S S S S E Q. H S S S S S S S S
 
 |---------------------------|-------------------------|
 |---------------------------|-------------------------|
 |---------------------------|-------------------------|
 |---------------------------|-------------------------|
 |-0--0-0-0-0-0-0--0-0-------|---------0-0-0-0-0-0-0-0-|
 |-0--0-0-0-0-0-0--0-0-------|---------0-0-0-0-0-0-0-0-|

|
| Q. Q. Q Q. Q. Q
 
 |---------------------------|-------------------------|
 |---------------------------|-------------------------|
 |---------------------------|-------------------------|
 |--------------6---------7--|-9----7----------6-------|
 |-5-------------------------|-------------------------|
 |---------------------------|-------------------------|

E5 N.C. E5
 
 ---------------------------------------------------|

S S S S S S S S E Q. H S S S S S S S S
 
 |---------------------------|---------------------------|
 |---------------------------|---------------------------|
 |---------------------------|---------------------------|
 |---------------------------|---------------------------|
 |-2--2-2-2-2-2-2--2-2-------|---------2-2-2-2-2-2-2-2---|
 |-2--2-2-2-2-2-2--2-2-------|---------2-2-2-2-2-2-2-2---|

|
| Q. Q. Q Q. Q. Q
 
 |---------------------------|---------------------------|
 |---------------------------|---------------------------|
 |---------------------------|---------------------------|
 |--------------6---------7--|-9----7----------6---------|
 |-7-------------------------|---------------------------|
 |---------------------------|---------------------------|

F#5 N.C. F#5
 
 PM---------------------------------------------------

S S S S S S S S E Q. H S S S S S S S S
 
 |---------------------------|-------------------------|
 |---------------------------|-------------------------|
 |---------------------------|-------------------------|
 |---------------------------|-------------------------|
 |-4--4-4-4-4-4-4--4-4-------|---------4-4-4-4-4-4-4-4-|
 |-4--4-4-4-4-4-4--4-4-------|---------4-4-4-4-4-4-4-4-|

|
| Q. Q. Q Q. Q. Q
 
 |---------------------------|-------------------------|
 |---------------------------|-------------------------|
 |---------------------------|-------------------------|
 |--------------6---------7--|-9----7----------6-------|
 |-9-------------------------|-------------------------|
 |---------------------------|-------------------------|

E5 N.C. E5
 
 ---------------------------------------------------|

S S S S S S S S E Q. H S S S S S S S S
 
 |---------------------------|---------------------------|
 |---------------------------|---------------------------|
 |---------------------------|---------------------------|
 |---------------------------|---------------------------|
 |-2--2-2-2-2-2-2--2-2-------|---------2-2-2-2-2-2-2-2---|
 |-2--2-2-2-2-2-2--2-2-------|---------2-2-2-2-2-2-2-2---|

|
| Q. Q. Q Q. Q. Q
 
 |---------------------------|---------------------------|
 |---------------------------|---------------------------|
 |---------------------------|---------------------------|
 |--------------6---------7--|-9----7----------6---------|
 |-7-------------------------|---------------------------|
 |---------------------------|---------------------------|

D5 N.C. D5
 
 PM---------------------------------------------------

S S S S S S S S E Q. H S S S S S S S S
 
 |---------------------------|-------------------------|
 |---------------------------|-------------------------|
 |---------------------------|-------------------------|
 |---------------------------|-------------------------|
 |-0--0-0-0-0-0-0--0-0-------|---------0-0-0-0-0-0-0-0-|
 |-0--0-0-0-0-0-0--0-0-------|---------0-0-0-0-0-0-0-0-|

|
| Q. Q. Q Q. Q. Q
 
 |---------------------------|-------------------------|
 |---------------------------|-------------------------|
 |---------------------------|-------------------------|
 |--------------6---------7--|-9----7----------6-------|
 |-5-------------------------|-------------------------|
 |---------------------------|-------------------------|

E5 N.C. E5
 
 ---------------------------------------------------|

S S S S S S S S E Q. H S S S S S S S S
 
 |---------------------------|---------------------------||
 |---------------------------|---------------------------||
 |---------------------------|---------------------------||
 |---------------------------|---------------------------||
 |-2--2-2-2-2-2-2--2-2-------|---------2-2-2-2-2-2-2-2---||
 |-2--2-2-2-2-2-2--2-2-------|---------2-2-2-2-2-2-2-2---||

|
| Q. Q. Q Q. Q. Q
 
 |---------------------------|---------------------------||
 |---------------------------|---------------------------||
 |---------------------------|---------------------------||
 |--------------6---------7--|-9----7----------6---------||
 |-7-------------------------|---------------------------||
 |---------------------------|---------------------------||

Guitar Solo
[F#5]Gtr I[A5]
W +H H
 
 |----------------|-------------------|
 |----------------|-------------------|
 |----------------|-------------------|
 |-4--------------|-(4)-------7-------|
 |-4--------------|-(4)-------7-------|
 |-4--------------|-(4)-------7-------|

|
| Gtr II
| H +E E E E E E E E E E E E
 
 |----------------|-------------------|
 |----------------|-------------------|
 |----------------|-------------------|
 |------------6-7-|-----6-7-6-7-9-7-6-|
 |-9----(9)-9-----|--9----------------|
 |----------------|-------------------|

|
| Gtr III
| W W
 
 |----------------|-------------------|
 |----------------|-------------------|
 |----------------|-------------------|
 |----------------|-------------------|
 |----------------|-------------------|
 |----------------|-------------------|

[E5] W +H [G#5] Q [A5] Q
 
 |--------------------|---------------------------------|
 |--------------------|---------------------------------|
 |--------------------|---------------------------------|
 |---2----------------|-(2)-----6-----------7-----------|
 |---2----------------|-(2)-----6-----------7-----------|
 |---2----------------|-(2)-----6-----------7-----------|

|
| H +Q E E H S S S S S S S S
 
 |--------------------|---------------------------------|
 |--------------------|--------------------------17-19--|
 |--------------------|-----------------16-18-19--------|
 |-/14----(14)--16-18-|-16-----16-18-19-----------------|
 |--------------------|---------------------------------|
 |--------------------|---------------------------------|

|
| W H S S S S S S S S
 
 |--------------------|---------------------------------|
 |--------------------|--------------------------14-15--|
 |--------------------|-----------------13-14-16--------|
 |--------------------|--------12-14-16-----------------|
 |--------------------|---------------------------------|
 |--------------------|---------------------------------|

[D5] W +H [A5] H
 
 |------------------------|--------------------------|
 |------------------------|--------------------------|
 |------------------------|--------------------------|
 |--0---------------------|-(0)-----7----------------|
 |--0---------------------|-(0)-----7----------------|
 |--0---------------------|-(0)-----7----------------|

|
 
 | |--3--| |--3--|

| H +Q E E H E E E E E E
 
 |------------------------|-----------------16-17-19-|
 |-21b22=====(21)r--21-22-|-21-----15-17-19----------|
 |------------------------|--------------------------|
 |------------------------|--------------------------|
 |------------------------|--------------------------|
 |------------------------|--------------------------|

|
 
 | |--3--| |--3--|

| H +Q E E H E E E E E E
 
 |------------------------|--------------------------|
 |-17b19=====(17)r--17-19-|-17--------------17-19-21-|
 |------------------------|--------16-18-19----------|
 |------------------------|--------------------------|
 |------------------------|--------------------------|
 |------------------------|--------------------------|

[E5] W [A5] E [G#5]Q. [A5G#5]E Q.
 
 |-------------------------|-----------------|
 |-------------------------|-----------------|
 |-------------------------|-----------------|
 |--2----------------------|-----------------|
 |--2----------------------|--7-6----7-6-----|
 |--2----------------------|--7-6----7-6-----|

|
| H +Q Q W
 
 |-19b21=====(19)r--19b22--|-19--------------|
 |-------------------------|-----------------|
 |-------------------------|-----------------|
 |-------------------------|-----------------|
 |-------------------------|-----------------|
 |-------------------------|-----------------|

|
| H +Q Q W
 
 |-------------------------|-----------------|
 |-21b22=====(21)r--21b22--|-21--------------|
 |-------------------------|-----------------|
 |-------------------------|-----------------|
 |-------------------------|-----------------|
 |-------------------------|-----------------|

[F#5] W
 
 |-------------------------------------|
 |-------------------------------------|
 |-------------------------------------|
 |--4----------------------------------|
 |--4----------------------------------|
 |--4----------------------------------|

|
 
 | |--3--| |--3--| |--3--| |--3--|

| E E E E E E E E E E E E
 
 |-21-17----------17-21-17----------17-|
 |-------19----19----------19----19----|
 |----------18----------------18-------|
 |-------------------------------------|
 |-------------------------------------|
 |-------------------------------------|

|
| W
 
 |-------------------------------------|
 |-------------------------------------|
 |-------------------------------------|
 |-------------------------------------|
 |-------------------------------------|
 |-------------------------------------|

+H [A5] H [E5] W +H [G#5A5]Q Q
 
 |---------------------------------|-----------------|-------------------|
 |---------------------------------|-----------------|-------------------|
 |---------------------------------|-----------------|-------------------|
 |-(4)-----------------7-----------|--2--------------|-(2)-------6---7---|
 |-(4)-----------------7-----------|--2--------------|-(2)-------6---7---|
 |-(4)-----------------7-----------|--2--------------|-(2)-------6---7---|

|
 
 | |--3---| |--3--| |--3--|

| E E E E E E E E E Q Q. Q. Q Q. Q. Q
 
 |-21--17----------17-21-17--------|-17----16--------|-------------------|
 |--------19----19----------19-----|-------------17--|-------------------|
 |-----------18----------------18--|-----------------|-16----14-----13---|
 |---------------------------------|-----------------|-------------------|
 |---------------------------------|-----------------|-------------------|
 |---------------------------------|-----------------|-------------------|

|
| W Q. Q. Q Q. Q. Q
 
 |---------------------------------|-21----19----16--|-------------------|
 |---------------------------------|-----------------|-15----14-----12---|
 |---------------------------------|-----------------|-------------------|
 |---------------------------------|-----------------|-------------------|
 |---------------------------------|-----------------|-------------------|
 |---------------------------------|-----------------|-------------------|

[D5] W +H [A5]H
 
 |----------------|-----------------|
 |----------------|-----------------|
 |----------------|-----------------|
 |--0-------------|-(0)--------7----|
 |--0-------------|-(0)--------7----|
 |--0-------------|-(0)--------7----|

|
| H. E E E E H.
 
 |----------------|-----------------|
 |-15-------15-15-|-15S14-14--------|
 |----------------|-----------------|
 |----------------|-----------------|
 |----------------|-----------------|
 |----------------|-----------------|

|
| H. E E E E H.
 
 |----------------|-----------------|
 |-19-------19-19-|-19S17-17--------|
 |----------------|-----------------|
 |----------------|-----------------|
 |----------------|-----------------|
 |----------------|-----------------|

[E5] W [A5] E [G#5] Q. [A5] E [G#5] Q.
 
 |-------------------------|----------------------------||
 |-------------------------|----------------------------||
 |-------------------------|----------------------------||
 |--2----------------------|----------------------------||
 |--2----------------------|--7--6---------7--6---------||
 |--2----------------------|--7--6---------7--6---------||

|
| E E E E E E E E E E E E E E E E
 
 |-------------------------|----------------------------||
 |-------------------------|----------------------------||
 |-13-13-13-14-14-14-13-13-|-16-16--16-14-14-14--13-13--||
 |-------------------------|----------------------------||
 |-------------------------|----------------------------||
 |-------------------------|----------------------------||

|
| E E E E E E E E E E E E E E E E
 
 |-------------------------|----------------------------||
 |-12-12-12-14-14-14-12-12-|-15-15--15-14-14-14--12-12--||
 |-------------------------|----------------------------||
 |-------------------------|----------------------------||
 |-------------------------|----------------------------||
 |-------------------------|----------------------------||

Bridge
F#5 N.C. F#5
Gtrs I, II
 
 PM---------------------------------------------------

S S S S S S S S E Q. H S S S S S S S S
 
 |---------------------------|-------------------------|
 |---------------------------|-------------------------|
 |---------------------------|-------------------------|
 |---------------------------|-------------------------|
 |-4--4-4-4-4-4-4--4-4-------|---------4-4-4-4-4-4-4-4-|
 |-4--4-4-4-4-4-4--4-4-------|---------4-4-4-4-4-4-4-4-|

|
| Gtr III
| Q. Q. Q Q. Q. Q
 
 |---------------------------|-------------------------|
 |---------------------------|-------------------------|
 |---------------------------|-------------------------|
 |--------------6---------7--|-9----7----------6-------|
 |-9-------------------------|-------------------------|
 |---------------------------|-------------------------|

E5 N.C. E5
 
 ---------------------------------------------------|

S S S S S S S S E Q. H S S S S S S S S
 
 |---------------------------|---------------------------|
 |---------------------------|---------------------------|
 |---------------------------|---------------------------|
 |---------------------------|---------------------------|
 |-2--2-2-2-2-2-2--2-2-------|---------2-2-2-2-2-2-2-2---|
 |-2--2-2-2-2-2-2--2-2-------|---------2-2-2-2-2-2-2-2---|

|
| Q. Q. Q Q. Q. Q
 
 |---------------------------|---------------------------|
 |---------------------------|---------------------------|
 |---------------------------|---------------------------|
 |--------------6---------7--|-9----7----------6---------|
 |-7-------------------------|---------------------------|
 |---------------------------|---------------------------|

D5 N.C. D5
 
 PM---------------------------------------------------

S S S S S S S S E Q. H S S S S S S S S
 
 |---------------------------|-------------------------|
 |---------------------------|-------------------------|
 |---------------------------|-------------------------|
 |---------------------------|-------------------------|
 |-0--0-0-0-0-0-0--0-0-------|---------0-0-0-0-0-0-0-0-|
 |-0--0-0-0-0-0-0--0-0-------|---------0-0-0-0-0-0-0-0-|

|
| Q. Q. Q Q. Q. Q
 
 |---------------------------|-------------------------|
 |---------------------------|-------------------------|
 |---------------------------|-------------------------|
 |--------------6---------7--|-9----7----------6-------|
 |-5-------------------------|-------------------------|
 |---------------------------|-------------------------|

E5 N.C. E5
 
 ---------------------------------------------------|

S S S S S S S S E Q. H S S S S S S S S
 
 |---------------------------|---------------------------|
 |---------------------------|---------------------------|
 |---------------------------|---------------------------|
 |---------------------------|---------------------------|
 |-2--2-2-2-2-2-2--2-2-------|---------2-2-2-2-2-2-2-2---|
 |-2--2-2-2-2-2-2--2-2-------|---------2-2-2-2-2-2-2-2---|

|
| Q. Q. Q Q. Q. Q
 
 |---------------------------|---------------------------|
 |---------------------------|---------------------------|
 |---------------------------|---------------------------|
 |--------------6---------7--|-9----7----------6---------|
 |-7-------------------------|---------------------------|
 |---------------------------|---------------------------|

F#5 N.C. F#5
 
 PM---------------------------------------------------

S S S S S S S S E Q. H S S S S S S S S
 
 |---------------------------|-------------------------|
 |---------------------------|-------------------------|
 |---------------------------|-------------------------|
 |---------------------------|-------------------------|
 |-4--4-4-4-4-4-4--4-4-------|---------4-4-4-4-4-4-4-4-|
 |-4--4-4-4-4-4-4--4-4-------|---------4-4-4-4-4-4-4-4-|

|
| Q. Q. Q Q. Q. Q
 
 |---------------------------|-------------------------|
 |---------------------------|-------------------------|
 |---------------------------|-------------------------|
 |--------------6---------7--|-9----7----------6-------|
 |-9-------------------------|-------------------------|
 |---------------------------|-------------------------|

E5 N.C. E5
 
 ---------------------------------------------------|

S S S S S S S S E Q. H S S S S S S S S
 
 |---------------------------|---------------------------|
 |---------------------------|---------------------------|
 |---------------------------|---------------------------|
 |---------------------------|---------------------------|
 |-2--2-2-2-2-2-2--2-2-------|---------2-2-2-2-2-2-2-2---|
 |-2--2-2-2-2-2-2--2-2-------|---------2-2-2-2-2-2-2-2---|

|
| Q. Q. Q Q. Q. Q
 
 |---------------------------|---------------------------|
 |---------------------------|---------------------------|
 |---------------------------|---------------------------|
 |--------------6---------7--|-9----7----------6---------|
 |-7-------------------------|---------------------------|
 |---------------------------|---------------------------|

D5 N.C. N.C.
 
 PM------------------------------------------------|

S S S S S S S S E Q. H S S S S S S S S
 
 |---------------------------|-------------------------|
 |---------------------------|-------------------------|
 |---------------------------|-------------------------|
 |---------------------------|-------------------------|
 |-0--0-0-0-0-0-0--0-0-------|---------0-0-0-0-0-0-0-0-|
 |-0--0-0-0-0-0-0--0-0-------|---------0-0-0-0-0-0-0-0-|

|
| Q. Q. Q Q. Q. Q
 
 |---------------------------|-------------------------|
 |---------------------------|-------------------------|
 |---------------------------|-------------------------|
 |--------------6---------7--|-9----7----------6-------|
 |-5-------------------------|-------------------------|
 |---------------------------|-------------------------|

[E5]W +H H
 
 |--------------|----------------||
 |--------------|----------------||
 |--------------|----------------||
 |-2------------|-(2)------2-----||
 |-2------------|-(2)------2-----||
 |-2------------|-(2)------2-----||

|
| Q. Q. Q Q. Q. Q
 
 |--------------|----------------||
 |--------------|----------------||
 |--------------|----------------||
 |------6----7--|--9----7-----6--||
 |-7------------|----------------||
 |--------------|----------------||

Guitar Solo
[F#5]Gtr I[A5]
[E] [E] [E] [E] [E] [E] [E] [E] [E] [E] [E] [E] [E] [E] [E] [E]  
 
 |-----------------|--------------------|
 |-----------------|-----------------10-|
 |-9-----------9---|--------------------|
 |---7-6---6-7---7-|--6----6-7-6-7-9----|
 |-------9---------|-----9--------------|
 |-----------------|--------------------|

|
| Gtr II
| W +H H
 
 |-----------------|--------------------|
 |-----------------|--------------------|
 |-----------------|--------------------|
 |-4---------------|-(4)-------7--------|
 |-4---------------|-(4)-------7--------|
 |-4---------------|-(4)-------7--------|

[E5] [G#5] [A5]  
[E] [E] [E] [E] [E] [E] [E] [E] [E] [E] [E] [E] [E] [E] [E] [E]  
 
 |-----------------|-----------------------|
 |-9-----------9---|-----------9-10-10-12--|
 |---7-6---6-7---7-|--6----6-7-------------|
 |-------9---------|-----9-----------------|
 |-----------------|-----------------------|
 |-----------------|-----------------------|

|
| W +H Q Q
 
 |-----------------|-----------------------|
 |-----------------|-----------------------|
 |-----------------|-----------------------|
 |-2---------------|-(2)-------6-----7-----|
 |-2---------------|-(2)-------6-----7-----|
 |-2---------------|-(2)-------6-----7-----|

[D5] [A5] [E5]  
 
 |--3--| |--3--| |--3--| |--3--|

Q. Q. Q Q. Q. Q E E E E E E E E E E E E
 
 |-17----16--------|------------------|-19-16----------16-17-16----------16-|
 |-------------17--|-15----14-----19--|-------17----17----------17----17----|
 |-----------------|------------------|----------18----------------16-------|
 |-----------------|------------------|-------------------------------------|
 |-----------------|------------------|-------------------------------------|
 |-----------------|------------------|-------------------------------------|

|
| W +H H W
 
 |-----------------|------------------|-------------------------------------|
 |-----------------|------------------|-------------------------------------|
 |-----------------|------------------|-------------------------------------|
 |--0--------------|-(0)-------7------|--2----------------------------------|
 |--0--------------|-(0)-------7------|--2----------------------------------|
 |--0--------------|-(0)-------7------|--2----------------------------------|

|
| Gtr III
| Q. Q. Q Q. Q. Q W
 
 |-----------------|------------------|-------------------------------------|
 |-19----17--------|------------------|-------------------------------------|
 |-------------18--|-16----14-----16--|-------------------------------------|
 |-----------------|------------------|-------------------------------------|
 |-----------------|------------------|-------------------------------------|
 |-----------------|------------------|-------------------------------------|

[A5] [G#5] [A5] [G#5]  
 
 |---3----| |--3--| |---3----| |--3--|

[E] [E] [E] [E] [E] [E] [E] [E] [E] [E] [E] [E]  
 
 |-19-16-------------16-17-16-------------16--|
 |----------17----17-------------17----17-----|
 |-------------18-------------------16--------|
 |--------------------------------------------|
 |--------------------------------------------|
 |--------------------------------------------|

|
| E Q. E Q.
 
 |--------------------------------------------|
 |--------------------------------------------|
 |--------------------------------------------|
 |--------------------------------------------|
 |--7----6---------------7----6---------------|
 |--7----6---------------7----6---------------|

|
| W
 
 |--------------------------------------------|
 |--------------------------------------------|
 |--------------------------------------------|
 |--------------------------------------------|
 |--------------------------------------------|
 |--------------------------------------------|

[F#5] Q E Q E Q E Q E [A5] E E E E
 
 |--------14--------14-14-----|-14---------14-------14-16-14-|
 |-17b19-----17b19-----17b19--|-----17b19-----17b19----------|
 |----------------------------|------------------------------|
 |----------------------------|------------------------------|
 |----------------------------|------------------------------|
 |----------------------------|------------------------------|

|
| W +H H
 
 |----------------------------|------------------------------|
 |----------------------------|------------------------------|
 |----------------------------|------------------------------|
 |--4-------------------------|-(4)------------7-------------|
 |--4-------------------------|-(4)------------7-------------|
 |--4-------------------------|-(4)------------7-------------|

|
| W W
 
 |----------------------------|------------------------------|
 |----------------------------|------------------------------|
 |----------------------------|------------------------------|
 |----------------------------|------------------------------|
 |----------------------------|------------------------------|
 |----------------------------|------------------------------|

[E5] H. E E E H. [G#5A5] +E
 
 |-16b17=======16r14-|-16b17-16b17=========(16)r--|
 |-------------------|----------------------------|
 |-------------------|----------------------------|
 |-------------------|----------------------------|
 |-------------------|----------------------------|
 |-------------------|----------------------------|

Important: The song above is NOT stored on the Chordie server. The original song is hosted at www.xguitar.com. Chordie works as a search engine and provides on-the-fly formatting. Chordie does not index songs against artists'/composers' will. To remove this song please click here.

Text color:
Chord color:
Chord grids: 
Font size:    
Page size: 

A5 B D5 E E5 F#5 G#5
Rate #1 of 2 versions

Jango Player

Login - add to songbook

SHARE PAGE  




You need to log in to post comments