Guitar Tabs, Chords and Lyrics
Major upgrade!! After one year development the new version of Chordie is now online! Please give feedback.


Suffocating Sight   Trivium

 
 ||---------------|--------------|--------------|--------------|
 ||o--------------|--------------|--------------|--------------|
 ||---------------|--------------|--------------|--------------|
 ||--8-8-8-8---8--|-7-7-7-7---7--|-5-5-5-5---5--|-7-7-7-7---7--|
 ||o-5-5-5-5---5--|-5-5-5-5---5--|-5-5-5-5---5--|-5-5-5-5---5--|
 ||--5-5-5-5---5--|-5-5-5-5---5--|-5-5-5-5---5--|-5-5-5-5---5--|

 


 


 Gtr I


 

 
 |-------------------|-------------------|
 |-------------------|-------------------|
 |-------------------|-------------------|
 |-7-7-7-7-(7)-7-7-7-|-5-5-5-5-(5)-5-5-5-|
 |-5-5-5-5-(5)-5-5-5-|-5-5-5-5-(5)-5-5-5-|
 |-0-0-0-0-(0)-0-0-0-|-0-0-0-0-(0)-0-0-0-|

 


 |


 | Gtr II


 

 
 |-------------------|-------------------|
 |-------------------|-------------------|
 |-7-7-7-7-(7)-7-7-7-|-7-7-7-7-(7)-7-7-7-|
 |-------------------|-------------------|
 |-5-5-5-5-(5)-5-5-5-|-5-5-5-5-(5)-5-5-5-|
 |-------------------|-------------------|
 |-------------------|--------------------||
 |-------------------|-------------------o||
 |-------------------|--------------------||
 |-8-8-8-8-(8)-8-8-8-|-7-7-7-7-(7)-7-7-7--||
 |-5-5-5-5-(5)-5-5-5-|-5-5-5-5-(5)-5-5-5-o||
 |-0-0-0-0-(0)-0-0-0-|-0-0-0-0-(0)-0-0-0--||

 


 |


 

 
 |-------------------|--------------------||
 |-------------------|-------------------o||
 |-7-7-7-7-(7)-7-7-7-|-7-7-7-7-(7)-7-7-7--||
 |-------------------|--------------------||
 |-5-5-5-5-(5)-5-5-5-|-5-5-5-5-(5)-5-5-5-o||
 |-------------------|--------------------||
 |-----------------------|-----------------------|
 |-----------------------|-----------------------|
 |-----------------------|-----------------------|
 |-------------------8---|-------------------7---|
 |---------------5-6---6-|---------------5-6---6-|
 |-5-5-5--5-5-5----------|-5-5-5--5-5-5----------|
 |-------------------------|-------------------------|
 |-------------------------|-------------------------|
 |-------------------------|-------------------------|
 |-5-----------7-----------|-12--------10--------8---|
 |---5--5-5-5----6--6-6-6--|----9--9-9----9--9-9-----|
 |-------------------------|-------------------------|
 |-----------------------|-----------------------|
 |-----------------------|-----------------------|
 |-----------------------|-----------------------|
 |-------------------8---|-------------------7---|
 |---------------5-6---6-|---------------5-6---6-|
 |-5-5-5--5-5-5----------|-5-5-5--5-5-5----------|

 


 |


 | Gtr II


 

 
 |-----------------------|-----------------------|
 |-----------------------|-----------------------|
 |-----------------------|-----------------------|
 |-----------------------|-----------------------|
 |-5-5-5--5-5-5----------|-5-5-5--5-5-5----------|
 |-5-5-5--5-5-5----------|-5-5-5--5-5-5----------|
 |-------------------------|--------------------------|
 |-------------------------|--------------------------|
 |-------------------------|--------------------------|
 |-5-----------7-----------|-12---------10--------8---|
 |---5--5-5-5----6--6-6-6--|-----9--9-9----9--9-9-----|
 |-------------------------|--------------------------|

 


 |


 

 
 |-------------------------|--------------------------|
 |-------------------------|--------------------------|
 |-------------------------|--------------------------|
 |-------------------------|--------------------------|
 |-0-----------------------|-(0)----------------------|
 |-0-----------------------|-(0)----------------------|

 


 


 Verse


 Gtrs I, II


 

 
 |-----------------------|-----------------------|
 |-----------------------|-----------------------|
 |-----------------------|-----------------------|
 |-------------------8---|-------------------7---|
 |---------------5-6---6-|---------------5-6---6-|
 |-5-5-5--5-5-5----------|-5-5-5--5-5-5----------|
 |-------------------------|-------------------------|
 |-------------------------|-------------------------|
 |-------------------------|-------------------------|
 |-5-----------7-----------|-12--------10--------8---|
 |---5--5-5-5----6--6-6-6--|----9--9-9----9--9-9-----|
 |-------------------------|-------------------------|

 


 


 Pre-Chorus


 

 
 |-------------------------|-------------------------|
 |-------------------------|-------------------------|
 |-------------------------|-------------------------|
 |-7---------------------7-|-7---------------------7-|
 |-5-5--5-5-5--5--5-5-5--5-|-4-4--4-4-4--4--4-4-4--4-|
 |-------------------------|-------------------------|
 |-------------------------|---------------------------|
 |-------------------------|---------------------------|
 |-------------------------|---------------------------|
 |-8---------------------8-|-10-----------11-----------|
 |-6-6--6-6-6--6--6-6-6--6-|--8-8--8-8-8---9-9--9-9-9--|
 |-------------------------|---------------------------|
 ||-----------|----------|----------|--------------||-|
 ||o----------|----------|----------|-------------o||-|
 ||-----------|----------|----------|--------------||-|
 ||--7--------|-7--------|-8--------|-10----11-----||-|
 ||o-5--------|-4--------|-6--------|--8-----9----o||-|
 ||-----------|----------|----------|--------------||-|

 


 


 Gtr I


 

 
 |---------------------------------------|
 |---------------------------------------|
 |---------------------------------------|
 |---------------------------------------|
 |-10--10-10-10--10--10-10-10--10-10-10--|
 |---------------------------------------|
 |---------------------------------------|
 |---------------------------------------|
 |---------------------------------------|
 |---------------------------------------|
 |-10--10-10-10--10--10-10-10--10-10-10--|
 |---------------------------------------|

 


 


 Chorus


 

 
 |------------|-----------|---------------|------------|
 |------------|-----------|---------------|------------|
 |------------|-----------|---------------|------------|
 |-5----------|-0---------|-1-------------|-3----------|
 |-5----------|-0---------|-1-------------|-3----------|
 |-5----------|-0---------|-1-------------|-3----------|

 


 |


 | Gtr II


 

 
 |------------|-----------|---------------|------------|
 |------------|-----------|---------------|------------|
 |------------|-----------|-7---5-(5)-----|---------5--|
 |-5----5--8--|-7------7--|------------8--|-7----7-----|
 |------------|-----------|---------------|------------|
 |------------|-----------|---------------|------------|
 |------------|-----------|----------------|-----------|
 |------------|-----------|----------------|-----------|
 |------------|-----------|----------------|-----------|
 |-5----------|-0---------|-1--------------|-3---------|
 |-5----------|-0---------|-1--------------|-3---------|
 |-5----------|-0---------|-1--------------|-3---------|

 


 |


 

 
 |------------|-----------|----------------|-----------|
 |------------|-----------|-6--------------|-----------|
 |------------|-----------|-----8-(8)--7-8-|-----------|
 |-5----5--8--|-7------7--|----------------|-8----7----|
 |------------|-----------|----------------|-----------|
 |------------|-----------|----------------|-----------|
 |------------|-----------|---------------|------------|
 |------------|-----------|---------------|------------|
 |------------|-----------|---------------|------------|
 |-5----------|-0---------|-1-------------|-3----------|
 |-5----------|-0---------|-1-------------|-3----------|
 |-5----------|-0---------|-1-------------|-3----------|

 


 |


 

 
 |------------|-----------|---------------|------------|
 |------------|-----------|---------------|------------|
 |------------|-----------|-7---5-(5)-----|---------5--|
 |-5----5--8--|-7------7--|------------8--|-7----7-----|
 |------------|-----------|---------------|------------|
 |------------|-----------|---------------|------------|
 |------------|-----------|----------------|-----------|
 |------------|-----------|----------------|-----------|
 |------------|-----------|----------------|-----------|
 |-5----------|-0---------|-1--------------|-3---------|
 |-5----------|-0---------|-1--------------|-3---------|
 |-5----------|-0---------|-1--------------|-3---------|

 


 |


 

 
 |------------|-----------|----------------|-----------|
 |------------|-----------|-6--------------|-----------|
 |------------|-----------|-----8-(8)--7-8-|-----------|
 |-5----5--8--|-7------7--|----------------|-8----7----|
 |------------|-----------|----------------|-----------|
 |------------|-----------|----------------|-----------|

 


 


 Bridge


 Gtrs I, II


 

 
 |-----------|-----------|-|
 |-----------|-----------|-|
 |-----------|-----------|-|
 |-5----4----|-1----0----|-|
 |-5----4----|-1----0----|-|
 |-5----4----|-1----0----|-|
 ||------------------------------|----------------------------||
 ||o-----------------------------|----------------------------||
 ||------------------------------|----------------------------||
 ||------------------------------|----------------------------||
 ||o-5-5-5--5-5-5--5-5-5--5-5-5--|-5-5-5--5-5-5--5-5-5--5-5-5-||
 ||--5-5-5--5-5-5--5-5-5--5-5-5--|-5-5-5--5-5-5--5-5-5--5-5-5-||
 |--------------------|----------------||
 |--------------------|---------------o||
 |--------------------|----------------||
 |--------------------|----------------||
 |-5-5--5--5--5--5--5-|-5--5--5--5--5-o||
 |-4-4--4--4--4--4--4-|-4--4--4--4--4--||

 


 


 Gtr I


 

 
 |----------------------|----------------------|
 |----------------------|----------------------|
 |----------------------|----------------------|
 |----------------------|----------------------|
 |--5-5--5-5------------|-5-5--5-5-------------|
 |--5-5--5-5------------|-5-5--5-5--------8\---|

 


 |


 | Gtr II


 

 
 |----------------------|----------------------|
 |----------------------|----------------------|
 |----------------------|----------------------|
 |------------------8---|-----------------7----|
 |--5-5--5-5----5-6---6-|-5-5--5-5----5-6----6-|
 |--5-5--5-5-5----------|-5-5--5-5-5-----------|
 |---------------------------|
 |---------------------------|
 |---------------------------|
 |---------------------------|
 |-0-0----0-0----------------|
 |-0-0----0-0----------------|

 


 |


 

 
 |---------------------------|
 |---------------------------|
 |---------------------------|
 |-5-------------7-----------|
 |-----5--5-5-5----6--6-6-6--|
 |---------------------------|
 |-------------------------------|-----------------------|
 |-------------------------------|-----------------------|
 |-------------------------------|-----------------------|
 |-------------------------------|-----------------------|
 |--1-1----1-1----4-4------4--4--|-5-5--5-5--------------|
 |--1-1----1-1----4-4------4--4--|-5-5--5-5--------------|

 


 |


 

 
 |-------------------------------|-----------------------|
 |-------------------------------|-----------------------|
 |-------------------------------|-----------------------|
 |-12----------10---------[8]----|-----------------8-----|
 |------9--9-9----9---9-9--------|-5-5--5-5----5-6---6---|
 |-------------------------------|-5-5--5-5-5------------|
 |---------------------|---------------------------|
 |---------------------|---------------------------|
 |---------------------|---------------------------|
 |---------------------|---------------------------|
 |-5-5--5-5------------|-0-0----0-0----------------|
 |-5-5--5-5--------8---|-0-0----0-0----------------|

 


 |


 

 
 |---------------------|---------------------------|
 |---------------------|---------------------------|
 |---------------------|---------------------------|
 |-----------------7---|-5-------------7-----------|
 |-5-5--5-5----5-6---6-|-----5--5-5-5----6--6-6-6--|
 |-5-5--5-5-5----------|---------------------------|
 |---------------------------------|
 |---------------------------------|
 |---------------------------------|
 |---------------------------------|
 |--1-1----1-1----4-4------4--4----|
 |--1-1----1-1----4-4------4--4----|

 


 |


 

 
 |---------------------------------|
 |---------------------------------|
 |---------------------------------|
 |-12----------10---------[8]------|
 |------9--9-9----9---9-9----------|
 |---------------------------------|

 


 


 Gtrs I, II


 

 
 |---------------|-----------------|---------------|
 |---------------|-----------------|---------------|
 |---------------|-----------------|---------------|
 |---------------|-----------------|---------------|
 |-5-5--5-5------|-5-5--5-5--------|-0-0--0-0------|
 |-5-5--5-5------|-5-5--5-5----8\--|-0-0--0-0------|
 |---------------------|---------------|------------------|
 |---------------------|---------------|------------------|
 |---------------------|---------------|------------------|
 |---------------------|---------------|------------------|
 |-1-1--1-1--4-4--4-4--|-5-5--5-5------|-5-5--5-5---------|
 |-1-1--1-1--4-4--4-4--|-5-5--5-5------|-5-5--5-5----8\---|
 |---------------|---------------------|
 |---------------|---------------------|
 |---------------|---------------------|
 |---------------|---------------------|
 |-0-0--0-0------|-1-1--1-1--4-4--4-4--|
 |-0-0--0-0------|-1-1--1-1--4-4--4-4--|

 


 


 Solo


 Gtr I


 

 
 |-----------------------------------|---------------------------------|
 |-----------------------------------|---------------------------------|
 |-----------------------------------|---------------------------------|
 |-----------------------------------|---------------------------------|
 |-----------------------------------|---------------------------------|
 |--5-5-5-5-5-5-5-5-5-5-5-5--5-5-5-5-|-5-5-5-5-5-5-5-5-7-7-7-7-8-8-8-8-|

 


 |


 | Gtr II


 

 
 |-----------------------------------|---------------------------------|
 |-----------------------------------|---------------------------------|
 |-----------------------------------|-8-------7-------5---------------|
 |----------7-------8-------10-------|-------------------------8-------|
 |-10--------------------------------|---------------------------------|
 |-----------------------------------|---------------------------------|
 |-----------------------------------|---------------------------------------
 |-----------------------------------|---------------------------------------
 |-----------------------------------|---------------------------------------
 |-----------------------------------|---------------------------------------
 |-----------------------------------|---------------------------------------
 |-4-4-4-4-4-4-4-4-4-4-4-4-4---4-4-4-|--1----1-1-1-1-1--1-1--4-4-4-4-4-4-4-4-
 |-----------------------------------|---------------------------------------
 |-----------------------------------|---------------------------------------
 |-----------------------------------|-14b15r==========12---11---------------
 |-7-----------------------7b8-------|---------------------------------------
 |-----------------------------------|---------------------------------------
 |-----------------------------------|---------------------------------------

 


 


 Gtr III


 

 
 |-----------------------------------|---------------------------------------
 |-----------------------------------|---------------------------------------
 |-----------------------------------|-17b18r==========15---14---------------
 |-----------------------------------|---------------------------------------
 |-----------------------------------|---------------------------------------
 |-----------------------------------|---------------------------------------
 |-------------------------------------------------|
 |-------------------------------------------------|
 |-------------------------------------------------|
 |-------------------------------------------------|
 |-------------------------------------------------|
 |--5--5--5--5--5--5--5--5--5--5--5--5--5--5--5--5-|

 


 |


 

 
 |-------------------------13-11-10-------10-11-13-|
 |----------13-15-13----13----------13-11----------|
 |-12-14-15----------15----------------------------|
 |-------------------------------------------------|
 |-------------------------------------------------|
 |-------------------------------------------------|
 |-------------------------------------------------|
 |-------------------------------------------------|
 |-------------------------------------------------|
 |-------------------------------------------------|
 |-------------------------------------------------|
 |--5--5--5--5--5--5--5--5--7--7--7--7--8--8--8--8-|

 


 |


 

 
 |-15-13-11-10-------13-15-17-15-13----------------|
 |-------------13-15----------------16-15-13-------|
 |-------------------------------------------15-14-|
 |-------------------------------------------------|
 |-------------------------------------------------|
 |-------------------------------------------------|
 |----------------------------------------|----------------------------------
 |----------------------------------------|----------------------------------
 |----------------------------------------|----------------------------------
 |----------------------------------------|----------------------------------
 |----------------------------------------|----------------------------------
 |-4--4-4-4--4-4-4-4--4-4-4-4--4-4-4-4----|1-1-1-1--1-1-1-1--4-4-4-4--4-4-4-4

 


 |


 

 
 |-17b18-------17-------15----------------|----------------------------14----
 |-------------------------------16-------|-15-------------------------------
 |----------------------------------------|----------15-------14-------------
 |----------------------------------------|----------------------------------
 |----------------------------------------|----------------------------------
 |----------------------------------------|----------------------------------

 


 


 Gtr III


 

 
 |-20b21-------20-------18----------------|----------------------------------
 |-------------------------------20-------|-18-------------------------15----
 |----------------------------------------|----------19-------17-------------
 |----------------------------------------|----------------------------------
 |----------------------------------------|----------------------------------
 |----------------------------------------|----------------------------------

 


 


 


 Gtr II


 

 
 |-15---------------------|-----------------------|
 |------------------------|-----------------------|
 |------------------------|-----------------------|
 |--------------------8---|-------------------7---|
 |----------------5-6---6-|---------------5-6---6-|
 |----5-5--5-5-5----------|-5-5-5--5-5-5----------|

 


 |


 | Gtr III


 

 
 |------------------------|-----------------------|
 |-16---------------------|-----------------------|
 |------------------------|-----------------------|
 |------------------------|-----------------------|
 |------------------------|-----------------------|
 |------------------------|-----------------------|
 |-------------------------|-------------------------|
 |-------------------------|-------------------------|
 |-------------------------|-------------------------|
 |-5-----------7-----------|-12--------10--------8---|
 |---5--5-5-5----6--6-6-6--|----9--9-9----9--9-9-----|
 |-------------------------|-------------------------|

 


 


 Gtrs I, II


 

 
 |-----------------------|-----------------------|-----------|
 |-----------------------|-----------------------|-----------|
 |-----------------------|-----------------------|-----------|
 |-------------------8---|-------------------7---|-----------|
 |---------------5-6---6-|---------------5-6---6-|-0---------|
 |-5-5-5--5-5-5----------|-5-5-5--5-5-5----------|-0---------|

 


 |


 | Gtr III


 

 
 |-----------------------|-----------------------|-----------|
 |-----------------------|-----------------------|-----------|
 |-----------------------|-----------------------|-7----5----|
 |-----------------------|-----------------------|-0---------|
 |-----------------------|-----------------------|-----------|
 |-----------------------|-----------------------|-----------|

 


 


 Synth Part


 Gtr III


 

 
 |-----------|-----------|----------|-----------|
 |-----------|-----------|----------|-----------|
 |-----------|-----------|----------|------5----|
 |-8----7----|-5----8----|-7--------|-8---------|
 |-----------|-----------|----------|-----------|
 |-----------|-----------|----------|-----------|
 |-----------|------------|----------|-----------|
 |-----------|------------|----------|-----------|
 |-----------|------------|----------|------5----|
 |-7---------|-------8----|-7--------|-8---------|
 |------8----|-10---------|----------|-----------|
 |-----------|------------|----------|-----------|

 


 


 Outro


 Gtr I


 

 
 |---------|-------------|-----------|----------------|
 |---------|-------------|-----------|----------------|
 |---------|-------------|-----------|----------------|
 |---------|-7-----------|-2---------|-3--------------|
 |---------|-7-----------|-2---------|-3--------------|
 |---------|-7-----------|-2---------|-3--------------|

 


 |


 | Gtr II


 

 
 |---------|-------------|-----------|----------------|
 |---------|-------------|-----------|----------------|
 |---------|-------------|-----------|-9---7-(7)------|
 |---------|-7----7--10--|-9------9--|------------10--|
 |---------|-------------|-----------|----------------|
 |---------|-------------|-----------|----------------|
 |------------|------------|-----------|-------------------|
 |------------|------------|-----------|-------------------|
 |------------|------------|-----------|-------------------|
 |-5----------|-7----------|-2---------|-3-----------------|
 |-5----------|-7----------|-2---------|-3-----------------|
 |-5----------|-7----------|-2---------|-3-----------------|

 


 |


 

 
 |------------|------------|-----------|-------------------|
 |------------|------------|-----------|-8-----------------|
 |---------7--|---------5--|-----------|-----10-(10)--9-10-|
 |-9----9-----|-7----7-----|-9------9--|-------------------|
 |------------|------------|-----------|-------------------|
 |------------|------------|-----------|-------------------|
 |------------|-------------|-----------|----------------|
 |------------|-------------|-----------|----------------|
 |------------|-------------|-----------|----------------|
 |--5---------|-7-----------|-2---------|-3--------------|
 |--5---------|-7-----------|-2---------|-3--------------|
 |--5---------|-7-----------|-2---------|-3--------------|

 


 |


 

 
 |------------|-------------|-----------|----------------|
 |------------|-------------|-----------|----------------|
 |------------|-------------|-----------|-9---7-(7)------|
 |-10----9----|-7----7--10--|-9------9--|------------10--|
 |------------|-------------|-----------|----------------|
 |------------|-------------|-----------|----------------|
 |------------|-------------|-----------|-------------------|
 |------------|-------------|-----------|-------------------|
 |------------|-------------|-----------|-------------------|
 |-5----------|-7-----------|-2---------|-3-----------------|
 |-5----------|-7-----------|-2---------|-3-----------------|
 |-5----------|-7-----------|-2---------|-3-----------------|

 


 |


 

 
 |------------|-------------|-----------|-------------------|
 |------------|-------------|-----------|-8-----------------|
 |---------7--|-------------|-----------|-----10-(10)--9-10-|
 |-9----9-----|-7----7--10--|-9------9--|-------------------|
 |------------|-------------|-----------|-------------------|
 |------------|-------------|-----------|-------------------|
 |------------|-------------|-----------|----------------|
 |------------|-------------|-----------|----------------|
 |------------|-------------|-----------|----------------|
 |--5---------|-7-----------|-2---------|-3--------------|
 |--5---------|-7-----------|-2---------|-3--------------|
 |--5---------|-7-----------|-2---------|-3--------------|

 


 |


 

 
 |------------|-------------|-----------|----------------|
 |------------|-------------|-----------|----------------|
 |------------|-------------|-----------|-9---7-(7)------|
 |-10----9----|-7----7--10--|-9------9--|------------10--|
 |------------|-------------|-----------|----------------|
 |------------|-------------|-----------|----------------|
 |------------|-------------|-----------|-------------------|
 |------------|-------------|-----------|-------------------|
 |------------|-------------|-----------|-------------------|
 |-5----------|-7-----------|-2---------|-3-----------------|
 |-5----------|-7-----------|-2---------|-3-----------------|
 |-5----------|-7-----------|-2---------|-3-----------------|

 


 |


 

 
 |------------|-------------|-----------|-------------------|
 |------------|-------------|-----------|-8-----------------|
 |---------7--|-------------|-----------|-----10-(10)--9-10-|
 |-9----9-----|-7----7--10--|-9------9--|-------------------|
 |------------|-------------|-----------|-------------------|
 |------------|-------------|-----------|-------------------|
 |------------|------------|-----------|----------------|
 |------------|------------|-----------|----------------|
 |------------|------------|-----------|----------------|
 |--5---------|-7----------|-2---------|-3--------------|
 |--5---------|-7----------|-2---------|-3--------------|
 |--5---------|-7----------|-2---------|-3--------------|

 


 |


 

 
 |------------|------------|-----------|----------------|
 |------------|------------|-----------|----------------|
 |------------|---------5--|-----------|-9---7-(7)------|
 |-10----9----|-7----7-----|-9------9--|------------10--|
 |------------|------------|-----------|----------------|
 |------------|------------|-----------|----------------|
 |------------|-------------|-----------|-------------------|
 |------------|-------------|-----------|-------------------|
 |------------|-------------|-----------|-------------------|
 |-5----------|-7-----------|-2---------|-3-----------------|
 |-5----------|-7-----------|-2---------|-3-----------------|
 |-5----------|-7-----------|-2---------|-3-----------------|

 


 |


 

 
 |------------|-------------|-----------|-------------------|
 |------------|-------------|-----------|-8-----------------|
 |---------7--|-------------|-----------|-----10-(10)--9-10-|
 |-9----9-----|-7----7--10--|-9------9--|-------------------|
 |------------|-------------|-----------|-------------------|
 |------------|-------------|-----------|-------------------|
 |------------|----------*|
 |------------|----------*|
 |------------|----------*|
 |--5---------|-7--------*|
 |--5---------|-7--------*|
 |--5---------|-7--------*|

 


 |


 

 
 |------------|----------*|
 |------------|----------*|
 |------------|----------*|
 |-10----9----|-7--------*|
 |------------|-7--------*|
 |------------|-7--------*|


Important: The song above is NOT stored on the Chordie server. The original song is hosted at www.xguitar.com. Chordie works as a search engine and provides on-the-fly formatting. Chordie does not index songs against artists'/composers' will. To remove this song please click here.

This song is displayed as text-only. Transposing and tuning is only available for chordpro-songs.
Rate #5 of 8 versions

Login - add to songbook

SHARE PAGE  




You need to log in to post comments