Guitar Tabs, Chords and Lyrics
Major upgrade!! After one year development the new version of Chordie is now online! Please give feedback.


Prince of the Rodeo   Turboneger

 
 -----------------------------------------------------------------------------------

 


 It is one of the versjons, I cant decide who are right.


 

 
 -----------------------------------------------------------------------------------

 


 


 Versjon 1


 


 * * * * * *


 

 
 e|--------------------------------------------|
 B|------------5-5-------7-7-5h7---------------|
 G|----------7-5-5-----7-7-7-5h7---------------|
 D|------5h7-------5h7-------------------------|
 A|--0-0---------------------------------------|
 E|--------------------------------------------|

 


 


 h= hammer on


 


 

 
 -------------------------------------------------------------------------------|

 


 


 versjon 2


 


 At ca. 0:20


 


 

 
 e|------------------------------|-----------------------------------------------|
 B|-----------7------7---7b8r7-5-|------8p5---5--8p5---5--played quickly!
 G|---------5-7------7---7b8r7-5-|--7b8-----7------7-----------------------------|
 D|-----5h7------5h7---7---------|-----------------------------------------------|
 A|-0-0--------------------------|-----------------------------------------------|
 E|------------------------------|-----------------------------------------------|
 e|-8p7p5---5---8p7p5---5---played in the same way--------------------15p12----12|
 B|-------8-----------8-----------------------------8b9------8b9------------15---|
 G|-----------------------------------------------------7b8------7b8-------------|
 D|------------------------------------------------------------------------------|
 A|------------------------------------------------------------------------------|
 E|------------------------------------------------------------------------------|
 e|-15p12-----12---15b17---------------------------------------------------------|
 B|-------15---------------------------------------------------------------------|
 G|------------------------------------------------------------------------------|
 D|------------------------------------------------------------------------------|
 A|------------------------------------------------------------------------------|
 E|------------------------------------------------------------------------------|


Important: The song above is NOT stored on the Chordie server. The original song is hosted at www.xguitar.com. Chordie works as a search engine and provides on-the-fly formatting. Chordie does not index songs against artists'/composers' will. To remove this song please click here.

This song is displayed as text-only. Transposing and tuning is only available for chordpro-songs.
Rate #1 of 3 versions

Login - add to songbook

SHARE PAGE  



You need to log in to post comments