Guitar Tabs, Chords and Lyrics
Server problems seems to be fixed. Chordie has been experiencing problems with songs disappearing. These issues now seems to be fixed, but still verifying the fix. If you find anything strange, please email admin@chordie.com.


My Girlfriendâ??s Girlfriend   Type O Negative

 
 ---|-----------------------------------------------------------|
 ---|-----------------------------------------------------------|
 ---|----9---7---10----9---7---5-7----9---7----5---4---5---5-7--|
 ---|-7----7----7----7---7---7-----7----7----7---5---5---5------|
 -7-|-----------------------------------------------------------|
 ---|-----------------------------------------------------------|

 


 


 [Riff 1; Dist. gtr.] 


 { The weird 3rd and open-string chords here sound nicer than


 power chords, which I think are actually used on the album. }


 

 
 |-----------------------------------------------------------|
 |-----------------------------------------------------------|
 |------------------------------7--7---7---------------------|
 |-7--7---7----7--7---0--0------7--7---7-----0---0----0---0--|
 |-7--7---7----8--8---7--7------5--5---5-----8---8\-/10--10--|
 |-5--5---5--0------0---------0-----------0----0---0---------|

 


 . . . . . .


 


 

 
 |----------------------------|--------------------------|
 |----------------------------|--------------------------|
 |----------------------12--\-|----------------5/9-5--7\-|
 |----------------------10--\-|-5--5--5-5-5----5/9-5--7\-|
 |-7----x-x-x-x-x-x-x-x--8--\-|-3--3--3-2-0-5--3/7-3--5\-|
 |-5----x-x-x-x-x-x-x-x-------|-------------3------------|

 


 . . . . . . . .


 


 [Cborus] 


 

 
 |-----------------------------------------|
 |-----------------------------------------|
 |-----------------------------------------|
 |-----------------------------------------|
 |-9-9-8-8-7-7-9-9-12-12-12-14----14-12-14-|
 |-7-7-7-7-7-7-7-7-10--9-10-12----12-12-12-|

 


 "My GF GF she looks like you."


 


 [Solo] 


 

 
 |-----------------------------------------------------------------|
 |-<5>---------------------slow--------------------------12-12-----|
 |------------------------pull'of-----------------12-12-------14---|
 |-------------10-10------14p12------10---------10-----------------|
 |----/12-10h12-----12~-12-----15p12---12-10-12--------------------|
 |-----------------------------------------------------------------|
 |----------------------------------------------------15-----------|
 |-----17----16----15----13-----------------/17-17-17----17-15~----|
 |-/14----14----14----14-------16----14-12-------------------------|
 |--------------------------14----14-----------------------[scrape]|
 |--------------------------------------------------------------x\-|
 |--------------------------------------------------------------x\-|

 


 


 [bridge] 


 { On the album this piece is actually played by keyb and bass,


 but when you're playing alone this will do fine. }


 b=bass note; Pete plays this an octave lower on bass }


 

 
 |-------------------------------------------------------------------|
 |-------3--------------3--------------3------3---3-----3----------3-|
 |-----2----2---2-----2----2---2-----2----2-----------0----0-----0---|
 |---0--------0-----2--------2-----2------------0--------------0-----|
 |-0-----------------------------3----------3-------2----------------|
 |----------------0------------------------------------------3-------|

 


 "Her[b] and me...."[b] [b] [b] [b] [b]


 


 [Stupid "in between"-riff] 


 

 
 |-----------------------------|
 |-----------------------------|
 |-----------------------------|
 |-----------------------------|
 |---------9-9-8-8-7-7-5-7-5-4-|
 |-0-5/7-7---------------------|


Important: The song above is NOT stored on the Chordie server. The original song is hosted at www.xguitar.com. Chordie works as a search engine and provides on-the-fly formatting. Chordie does not index songs against artists'/composers' will. To remove this song please click here.

This song is displayed as text-only. Transposing and tuning is only available for chordpro-songs.
Rate #1 of 3 versions

Login - add to songbook

SHARE PAGE  



You need to log in to post comments