Guitar Tabs, Chords and Lyrics
Major upgrade!! After one year development the new version of Chordie is now online! Please give feedback.


A Boy Brushed Red Living in Black and White   Underoath

 
 e|--------------------------------------------------------------------|
 b|--------------------------------------------------------------------|
 G|--------------------------------------------------------------------|
 D|--------------------------------------------------------------------|
 A|-444444444444444-00000000000000000-2222222222222222-----------------|
 D|---------------------------------------------------4444444444444444-|

 


 pm ............... ................. ................................


 


 

 
 e|--------------------------------------------------------------------|
 b|--------------------------------------------------------------------|
 G|--------------------------------------------------------------------|

 


 D|-6666666666666666-9999999999999999-44444444444444442222222222222222-|


 A|-4444444444444444-0000000000000000-2222222222222222xxxxxxxxxxxxxxxx-|


 

 
 D|---------------------------------------------------4444444444444444-|

 


 pm ................ ................ ........................


 


 Then


 

 
 e|--------------------------------------------------------------------|
 b|--------------------------------------------------------------------|
 G|-6666-66666-6666-6666-66666-6666------------------------------------|
 D|-6666-66666-6666-6666-66666-6666-11111111-1111111111-11111111-------|
 A|-4444-44444-4444-0000-00000-0000-11111111-1111111111-11111111-------|
 D|----------------------------------9-9-9-9--9-9-9-9-9--9-9-9-9-------|
 e|--------------------------------------------------------------------|
 b|--------------------------------------------------------------------|
 G|-6666-66666-6666----------------------------------------------------|
 D|-6666-66666-6666----------------------------------------------------|
 A|-4444-44444-4444----------------------------------------------------|
 D|-4444-44444-4444----------------------------------------------------|

 


 


 Verse (Guitar 1)


 

 
 e|--------------------------------------------------------------------|
 b|--------------------------------------------------------------------|
 G|-----666-----666----------666-----666-------------------------------|
 D|-----------------6666-----------------6666----111111---111111-------|
 A|-444-----444----------000-----000----------------------------111111-|
 D|-...-----...----------...-----...----------999------999-------------|

 


 pm ... ...


 


 

 
 e|--------------------------------------------------------------------|
 b|--------------------------------------------------------------------|
 G|-----666-----666----------------------------------------------------|
 D|-----------------6666-----------------------------------------------|
 A|--------------------------------------------------------------------|
 D|-444-----444--------------------------------------------------------|

 


 pm ... ...


 


 This Part 2x


 


 

 
 e|-0-0-00000-0-00000000-0-0-00000-0-00000000--------------------------|
 b|-5\4-44444/5-77777777-5\4-44444/5/99999999--------------------------|
 G|--------------------------------------------------------------------|
 D|--------------------------------------------------------------------|
 A|--------------------------------------------------------------------|
 D|--------------------------------------------------------------------|

 


 


 "Here is where we both go wrong"


 

 
 e|--------------------------------------------------------------------|
 b|--------------------------------------------------------------------|
 G|-6666-66666-6666-6666-66666-6666------------------------------------|
 D|-6666-66666-6666-6666-66666-6666-11111111-1111111111-11111111-------|
 A|-4444-44444-4444-0000-00000-0000-11111111-1111111111-11111111-------|
 D|----------------------------------9-9-9-9--9-9-9-9-9--9-9-9-9-------|
 e|--------------------------------------------------------------------|
 b|--------------------------------------------------------------------|
 G|-6666-66666-6666----------------------------------------------------|
 D|-6666-66666-6666----------------------------------------------------|
 A|-4444-44444-4444----------------------------------------------------|
 D|-4444-44444-4444----------------------------------------------------|

 


 


 "So tie me up..."


 

 
 e|--------------------------------------------------------------------|
 b|--------------------------------------------------------------------|
 G|-6666-66666-6666-6666-66666-6666------------------------------------|
 D|-6666-66666-6666-6666-66666-6666-11111111-1111111111-11111111-------|
 A|-4444-44444-4444-0000-00000-0000-11111111-1111111111-11111111-------|
 D|----------------------------------9-9-9-9--9-9-9-9-9--9-9-9-9-------|
 e|--------------------------------------------------------------------|
 b|--------------------------------------------------------------------|
 G|-6666-66666-6666----------------------------------------------------|
 D|-6666-66666-6666----------------------------------------------------|
 A|-4444-44444-4444----------------------------------------------------|
 D|-4444-44444-4444----------------------------------------------------|

 


 


 Pre chorus (2X)


 "In this moment when we both ignore the truth..."


 

 
 e|-0--0>------0-00000000000000000000-000-00000------------------------|
 b|-4/12>-----\5-55555555555555555555\444/55555------------------------|
 G|--------------------------------------------------------------------|
 D|--------------------------------------------------------------------|
 A|--------------------------------------------------------------------|
 D|--------------------------------------------------------------------|

 


 


 Chorus


 

 
 e|--------------------------------------------------------------------|
 b|--------------------------------------------------------------------|
 G|-6-6-666-6-66-666-6-6-666-6-66-6666---------------------------------|
 D|-6-6-666-6-66-666-6-6-666-6-66-6666---------------------------------|
 A|-4-4-444-0-00-000-x-x-xxx-0-00-0000---------------------------------|
 D|------------------4-4-444-------------------------------------------|
 e|--------------------------------------------------------------------|
 b|--------------------------------------------------------------------|
 G|-6-6-666-6-66-666-6-6-666-6-----666---------------------------------|
 D|-6-6-666-6-66-666-6-6-666-6-----666---------------------------------|
 A|-4-4-444-0-00-000-x-x-xxx-0-0000000---------------------------------|
 D|------------------4-4-444---....------------------------------------|
 e|--------------------------------------------------------------------|
 b|--------------------------------------------------------------------|
 G|-6-6-666-6-66-666-6-6-666-6-66-6666---------------------------------|
 D|-6-6-666-6-66-666-6-6-666-6-66-6666---------------------------------|
 A|-4-4-444-0-00-000-x-x-xxx-0-00-0000---------------------------------|
 D|------------------4-4-444-------------------------------------------|
 e|--------------------------------------------------------------------|
 b|--------------------------------------------------------------------|
 G|-6-6-666-6-66-666-6-6-666-6-66-6666---------------------------------|
 D|-6-6-666-6-66-666-6-6-666-6-66-6666---------------------------------|
 A|-4-4-444-0-00-000-x-x-xxx-0-00-0000---------------------------------|
 D|------------------4-4-444-------------------------------------------|

 


 


 Verse 2


 "Well Look who's dying now..."


 

 
 e|--------------------------------------------------------------------|
 b|--------------------------------------------------------------------|
 G|---------------------------------------------------6666666666666666-|
 D|------------------9999999999999999-4444444444444444.........--------|
 A|-4444444444444444-................-................-----------------|
 D|-................---------------------------------------------------|

 


 


 "It doesn't matter what you say..."


 

 
 e|-0-0-00000-0-00000000-0-0-00000-0-00000000--------------------------|
 b|-5\4-44444/5-77777777-5\4-44444/5/99999999--------------------------|
 G|--------------------------------------------------[2x]--------------|
 D|--------------------------------------------------------------------|
 A|--------------------------------------------------------------------|
 D|--------------------------------------------------------------------|

 


 


 Pre chorus (2X)


 

 
 e|---0>----0-00000000000000000000-000-0-------------------------------|
 b|-/12>---\5-55555555555555555555\444/5-------------------------------|
 G|--------------------------------------------------------------------|
 D|--------------------------------------------------------------------|
 A|--------------------------------------------------------------------|
 D|--------------------------------------------------------------------|

 


 


 Chorus 2


 "Your Lungs have failed..."


 

 
 e|--------------------------------------------------------------------|
 b|--------------------------------------------------------------------|
 G|-6-6-666-6-66-666-6-6-666-6-66-6666---------------------------------|
 D|-6-6-666-6-66-666-6-6-666-6-66-6666---------------------------------|
 A|-4-4-444-0-00-000-x-x-xxx-0-00-0000---------------------------------|
 D|------------------4-4-444-------------------------------------------|
 e|--------------------------------------------------------------------|
 b|--------------------------------------------------------------------|
 G|-6-6-666-6-66-666-6-6-666-6-----666---------------------------------|
 D|-6-6-666-6-66-666-6-6-666-6-----666---------------------------------|
 A|-4-4-444-0-00-000-x-x-xxx-0-0000000---------------------------------|
 D|------------------4-4-444---....------------------------------------|
 e|--------------------------------------------------------------------|
 b|--------------------------------------------------------------------|
 G|-6-6-666-6-66-666-6-6-666-6-66-6666---------------------------------|
 D|-6-6-666-6-66-666-6-6-666-6-66-6666---------------------------------|
 A|-4-4-444-0-00-000-x-x-xxx-0-00-0000---------------------------------|
 D|------------------4-4-444-------------------------------------------|
 e|--------------------------------------------------------------------|
 b|--------------------------------------------------------------------|
 G|-6-6-666-6-66-666-6-6-666-6-66-6666---------------------------------|
 D|-6-6-666-6-66-666-6-6-666-6-66-6666---------------------------------|
 A|-4-4-444-0-00-000-x-x-xxx-0-00-0000---------------------------------|
 D|------------------4-4-444-------------------------------------------|

 


 


 Breakdown


 Repeat this tons of times until end of breakdown


 

 
 e|-0000-0-------------------------------------------------------------|
 b|-4444/5-------------------------------------------------------------|
 G|--------------------------------------------------------------------|
 D|--------------------------------------------------------------------|
 A|--------------------------------------------------------------------|
 D|--------------------------------------------------------------------|

 


 


 Then the soft part... it's something along these lines..


 Repeat it 3x, 4th time ring out G|-13-|


 

 
 e|-----11---14----11--------------------------------------------------|
 b|---12-------------12------------------------------------------------|
 G|-13----13----13-----------------------------------------------------|
 D|--------------------------------------------------------------------|
 A|--------------------------------------------------------------------|
 D|--------------------------------------------------------------------|

 


 


 Final Chorus


 

 
 e|--------------------------------------------------------------------|
 b|--------------------------------------------------------------------|
 G|-6-6-666-6-66-666-6-6-666-6-66-6666---------------------------------|
 D|-6-6-666-6-66-666-6-6-666-6-66-6666---------------------------------|
 A|-4-4-444-0-00-000-x-x-xxx-0-00-0000---------------------------------|
 D|------------------4-4-444-------------------------------------------|
 e|--------------------------------------------------------------------|
 b|--------------------------------------------------------------------|
 G|-6-6-666-6-66-666-6-6-666-6-6666666---------------------------------|
 D|-6-6-666-6-66-666-6-6-666-6-6666666---------------------------------|
 A|-4-4-444-0-00-000-x-x-xxx-0-0000000---------------------------------|
 D|------------------4-4-444-------------------------------------------|
 e|--------------------------------------------------------------------|
 b|--------------------------------------------------------------------|
 G|-6-6-666-6-66-666-6-6-666-6-66-6666---------------------------------|
 D|-6-6-666-6-66-666-6-6-666-6-66-6666---------------------------------|
 A|-4-4-444-0-00-000-x-x-xxx-0-00-0000---------------------------------|
 D|------------------4-4-444-------------------------------------------|
 e|--------------------------------------------------------------------|
 b|--------------------------------------------------------------------|
 G|-6-6-666-6-66-666-6-6-666-6-66-6666---------------------------------|
 D|-6-6-666-6-66-666-6-6-666-6-66-6666---------------------------------|
 A|-4-4-444-0-00-000-x-x-xxx-0-00-0000---------------------------------|
 D|------------------4-4-444-------------------------------------------|

 


 


 Outro


 "I Never thought we would make it out alive.."


 Same as Chorus but just keep strumming the chords


 


 And the End


 

 
 e|--------------------------------------------------------------------|
 b|--------------------------------------------------------------------|
 G|-111111-11-11\------------------------------------------------------|
 D|--x-x-x--x--x\------------------------------------------------------|
 A|--9-9-9--9--9\------------------------------------------------------|
 D|--------------------------------------------------------------------|

 


 


 =======================================================================


 


 GUITAR 2'S PARTS


 


 Guitar 2 comes in at the very end of the second time in the intro with


 

 
 e|--------------------------------------------------------------------|
 b|--------------------------------------------------------------------|
 G|-6666/9999999-------------------------------------------------------|
 D|--------------------------------------------------------------------|
 A|--------------------------------------------------------------------|
 D|--------------------------------------------------------------------|

 


 


 Then


 

 
 e|--------------------------------------------------------------------|
 b|--------------------------------------------------------------------|
 G|-6666-66666-6666-6666-66666-6666------------------------------------|
 D|-6666-66666-6666-6666-66666-6666-11111111-1111111111-11111111-------|
 A|-4444-44444-4444-0000-00000-0000-11111111-1111111111-11111111-------|
 D|----------------------------------9-9-9-9--9-9-9-9-9--9-9-9-9-------|
 e|--------------------------------------------------------------------|
 b|--------------------------------------------------------------------|
 G|-6666-66666-6666----------------------------------------------------|
 D|-6666-66666-6666----------------------------------------------------|
 A|-4444-44444-4444----------------------------------------------------|
 D|-4444-44444-4444----------------------------------------------------|

 


 


 Verse (Palm Mute all) 3X


 

 
 e|--------------------------------------------------------------------|
 b|--------------------------------------------------------------------|
 G|--------------------------------------------------------------------|
 D|--------------------------------------------------------------------|
 A|-444444444444444-000000000000000-222222222222222--------------------|
 D|-------------------------------------------------4444444444444444---|

 


 


 "Here is where we both go wrong"


 

 
 e|--------------------------------------------------------------------|
 b|--------------------------------------------------------------------|
 G|-6666-66666-6666-6666-66666-6666------------------------------------|
 D|-6666-66666-6666-6666-66666-6666-11111111-1111111111-11111111-------|
 A|-4444-44444-4444-0000-00000-0000-11111111-1111111111-11111111-------|
 D|----------------------------------9-9-9-9--9-9-9-9-9--9-9-9-9-------|
 e|--------------------------------------------------------------------|
 b|--------------------------------------------------------------------|
 G|-6666-66666-6666----------------------------------------------------|
 D|-6666-66666-6666----------------------------------------------------|
 A|-4444-44444-4444----------------------------------------------------|
 D|-4444-44444-4444----------------------------------------------------|

 


 


 "So tie me up..."


 

 
 e|--------------------------------------------------------------------|
 b|--------------------------------------------------------------------|
 G|-6666-66666-6666-6666-66666-6666------------------------------------|
 D|-6666-66666-6666-6666-66666-6666-11111111-1111111111-11111111-------|
 A|-4444-44444-4444-0000-00000-0000-11111111-1111111111-11111111-------|
 D|----------------------------------9-9-9-9--9-9-9-9-9--9-9-9-9-------|
 e|--------------------------------------------------------------------|
 b|--------------------------------------------------------------------|
 G|-6666-66666-6666----------------------------------------------------|
 D|-6666-66666-6666----------------------------------------------------|
 A|-4444-44444-4444----------------------------------------------------|
 D|-4444-44444-4444----------------------------------------------------|

 


 


 PreChorus (2X)


 

 
 e|--------------------------------------------------------------------|
 b|--------------------------------------------------------------------|
 G|-2-2-2222-222-222-2-2-222-2-222-222---------------------------------|
 D|-2-2-2222-222-222-2-2-222-2-222-222-4-4-444-4-444-444-44-4444-44444-|
 A|-0-0-0000-000-000-0-0-000-0-000-000-4-4-444-4-444-444-44-4444-44444-|
 D|------------------------------------4-4-444-4-444-444-44-4444-44444-|
 e|--------------------------------------------------------------------|
 b|--------------------------------------------------------------------|
 G|-2-2-2222-222-222-2-2-222-2-222-222---------------------------------|
 D|-2-2-2222-222-222-2-2-222-2-222-222-4-4-44-4-4-4-4/6666666----------|
 A|-0-0-0000-000-000-0-0-000-0-000-000-4-4-44-4-4-4-4/6666666----------|
 D|------------------------------------4-4-44-4-4-4-4/6666666----------|

 


 


 Chorus


 

 
 e|--------------------------------------------------------------------|
 b|--------------------------------------------------------------------|
 G|-6-6-666-6-66-666-6-6-666-6-66-6666---------------------------------|
 D|-6-6-666-6-66-666-6-6-666-6-66-6666---------------------------------|
 A|-4-4-444-0-00-000-x-x-xxx-0-00-0000---------------------------------|
 D|------------------4-4-444-------------------------------------------|
 e|--------------------------------------------------------------------|
 b|--------------------------------------------------------------------|
 G|-6-6-666-6-66-666-6-6-666-6-----666---------------------------------|
 D|-6-6-666-6-66-666-6-6-666-6-----666---------------------------------|
 A|-4-4-444-0-00-000-x-x-xxx-0-0000000---------------------------------|
 D|------------------4-4-444---....------------------------------------|

 


 


 Chorus Part 2 (Actually is the keyboard part arranged for guitar)


 

 
 e|--------------------------------------------------------------------|
 b|--------------------------------------------------------------------|
 G|-11-11-111111-14-14-141414-17-17-171717-9-9-999---------------------|
 D|--x--x--x-x-x--x--x--x-x-x--x--x--x-x-x-x-x-xxx---------------------|
 A|--9--9--9-9-9-12-12-121212-15-15-151515-7-7-777---------------------|
 D|--------------------------------------------------------------------|
 e|--------------------------------------------------------------------|
 b|--------------------------------------------------------------------|
 G|-11-11-111111-14-14-141414-13-13-131313-9-9-999---------------------|
 D|--x--x--x-x-x--x--x--x-x-x--x--x--x-x-x-x-x-xxx---------------------|
 A|--9--9--9-9-9-12-12-121212-11-11-111111-7-7-777---------------------|
 D|--------------------------------------------------------------------|

 


 


 Verse 2


 

 
 e|--Pause-------------------------------------------------------------|
 b|--------------------------------------------------------------------|
 G|--[well look--------------------------------------------------------|
 D|---who's dying---222222222222222-444444444444444--------------------|
 A|----now]---------000000000000000-222222222222222-4444444444444444---|
 D|-------------------------------------------------4444444444444444---|

 


 


 "It doesn't matter what you say..."


 

 
 e|--------------------------------------------------------------------|
 b|--------------------------------------------------------------------|
 G|--------------------------------------------------------------------|
 D|-666666666666666-222222222222222-444444444444444--------------------|
 A|-444444444444444-000000000000000-222222222222222-4444444444444444---|
 D|-------------------------------------------------4444444444444444---|

 


 


 Pre Chorus 2 (2X)


 

 
 e|--------------------------------------------------------------------|
 b|--------------------------------------------------------------------|
 G|-2-2-2222-222-222-2-2-222-2-222-222---------------------------------|
 D|-2-2-2222-222-222-2-2-222-2-222-222-4-4-444-4-444-444-44-4444-44444-|
 A|-0-0-0000-000-000-0-0-000-0-000-000-4-4-444-4-444-444-44-4444-44444-|
 D|------------------------------------4-4-444-4-444-444-44-4444-44444-|
 e|--------------------------------------------------------------------|
 b|--------------------------------------------------------------------|
 G|-2-2-2222-222-222-2-2-222-2-222-222---------------------------------|
 D|-2-2-2222-222-222-2-2-222-2-222-222-4-4-44-4-4-4-4/6666666----------|
 A|-0-0-0000-000-000-0-0-000-0-000-000-4-4-44-4-4-4-4/6666666----------|
 D|------------------------------------4-4-44-4-4-4-4/6666666----------|

 


 


 Chorus 2 (Same as guitar one)


 

 
 e|--------------------------------------------------------------------|
 b|--------------------------------------------------------------------|
 G|-6-6-666-6-66-666-6-6-666-6-66-6666---------------------------------|
 D|-6-6-666-6-66-666-6-6-666-6-66-6666---------------------------------|
 A|-4-4-444-0-00-000-x-x-xxx-0-00-0000---------------------------------|
 D|------------------4-4-444-------------------------------------------|
 e|--------------------------------------------------------------------|
 b|--------------------------------------------------------------------|
 G|-6-6-666-6-66-666-6-6-666-6-----666---------------------------------|
 D|-6-6-666-6-66-666-6-6-666-6-----666---------------------------------|
 A|-4-4-444-0-00-000-x-x-xxx-0-0000000---------------------------------|
 D|------------------4-4-444---....------------------------------------|
 e|--------------------------------------------------------------------|
 b|--------------------------------------------------------------------|
 G|-6-6-666-6-66-666-6-6-666-6-66-6666---------------------------------|
 D|-6-6-666-6-66-666-6-6-666-6-66-6666---------------------------------|
 A|-4-4-444-0-00-000-x-x-xxx-0-00-0000---------------------------------|
 D|------------------4-4-444-------------------------------------------|
 e|--------------------------------------------------------------------|
 b|--------------------------------------------------------------------|
 G|-6-6-666-6-66-666-6-6-666-6-66-6666---------------------------------|
 D|-6-6-666-6-66-666-6-6-666-6-66-6666---------------------------------|
 A|-4-4-444-0-00-000-x-x-xxx-0-00-0000---------------------------------|
 D|------------------4-4-444-------------------------------------------|

 


 


 Breakdown


 "Don't Shake, I hate to see you TREMBLE.."


 

 
 e|--------------------------------------------------------------------|
 b|--------------------------------------------------------------------|
 G|--------------------------------------------------------------------|
 D|-7777x-777x-4444x-444x----------------------------------------------|
 A|-7777x-777x-4444x-444x----------------------------------------------|
 D|-7777x-777x-4444x-444x----------------------------------------------|

 


 play that a bunch of times and then just strum it until the quiet part


 


 Quiet Part (Clean)


 

 
 e|-0~---0~---0~---0~---0~---0~---0~-----------------------------------|
 b|-0~---0~---0~---0~---0~---0~---0~-----------------------------------|
 G|-6~---6~---6~---6~---6~---6~---6~-----------------------------------|
 D|-6~---6~---6~---6~---6~---6~---6~-----------------------------------|
 A|-4~---0~---x~---0~---4~---0~---x~-----------------------------------|
 D|-----------4~------------------4~-----------------------------------|

 


 


 Last Chorus (listen for initial octaves fill here)


 

 
 e|--------------------------------------------------------------------|
 b|--------------------------------------------------------------------|
 G|-1111-111111/13-1313-131313-6-6-666-6-66-6666-----------------------|
 D|--x-x--x-x-x--x--x-x--x-x-x-6-6-666-6-66-6666-----------------------|
 A|--9-9--9-9-9/11-1111-111111-x-x-xxx-0-00-0000-----------------------|
 D|----------------------------4-4-444---------------------------------|
 e|--------------------------------------------------------------------|
 b|--------------------------------------------------------------------|
 G|-6-6-666-6-66-666-6-6-666-6-6666666---------------------------------|
 D|-6-6-666-6-66-666-6-6-666-6-6666666---------------------------------|
 A|-4-4-444-0-00-000-x-x-xxx-0-0000000---------------------------------|
 D|------------------4-4-444-------------------------------------------|
 e|--------------------------------------------------------------------|
 b|--------------------------------------------------------------------|
 G|-6-6-666-6-66-666-6-6-666-6-66-6666---------------------------------|
 D|-6-6-666-6-66-666-6-6-666-6-66-6666---------------------------------|
 A|-4-4-444-0-00-000-x-x-xxx-0-00-0000---------------------------------|
 D|------------------4-4-444-------------------------------------------|
 e|--------------------------------------------------------------------|
 b|--------------------------------------------------------------------|
 G|-6-6-666-6-66-666-6-6-666-6-66-6666---------------------------------|
 D|-6-6-666-6-66-666-6-6-666-6-66-6666---------------------------------|
 A|-4-4-444-0-00-000-x-x-xxx-0-00-0000---------------------------------|
 D|------------------4-4-444-------------------------------------------|

 


 


 Repeat chorus chords


 


 Then end with


 

 
 e|--------------------------------------------------------------------|
 b|--------------------------------------------------------------------|
 G|-666-6-6\-----------------------------------------------------------|
 D|-666-6-6\-----------------------------------------------------------|
 A|-444-4-4\-----------------------------------------------------------|
 D|--------------------------------------------------------------------|


Important: The song above is NOT stored on the Chordie server. The original song is hosted at www.xguitar.com. Chordie works as a search engine and provides on-the-fly formatting. Chordie does not index songs against artists'/composers' will. To remove this song please click here.

This song is displayed as text-only. Transposing and tuning is only available for chordpro-songs.
Rate #0 of 8 versions

Login - add to songbook

SHARE PAGE  




You need to log in to post comments