Guitar Tabs, Chords and Lyrics
Major upgrade!! After one year development the new version of Chordie is now online! Please give feedback.


Down, Set, Go  Underoath

As recorded by Underoath
(From the 2004 Album THEY'RE ONLY CHASING SAFETY)
Transcribed by Cordarro Collins
Words and Music by Underoath
Arranged by Underoath
Gtr I (D A D G B E) - 'Untitled'
Gtr II (D A D G B E) - 'Untitled'
Gtr III (D A D G B E) - 'Untitled'
Gtr IV (D A D G B E) - 'Untitled'
Gtr V (D A D G B E) - 'Untitled'
Gtr VI (E A D G B E) - 'Untitled'
Intro
Q=170
N.C. C C#m7/E
[4/4] Gtr II
Q Q E E E E +E E Q E E E E Q Q E E E E +E E Q E E E E
 
 |---------------|------------------|---------------|------------------|
 |---------------|------------------|---------------|------------------|
 |-6--6--6-6-6-6-|-(6)-6-6--6-6-6-6-|-6--6--6-6-6-6-|-(6)-6-6--6-6-6-6-|
 |-4--4--4-4-4-0-|-(0)-0-0--0-0-0-0-|-0--0--0-0-0-0-|-(0)-2-2--2-2-2-2-|
 |---------------|------------------|---------------|-------2--2-2-2-2-|
 |---------------|------------------|---------------|-------2--2-2-2-2-|

N.C. C#m7/E
Gtr II
Q Q E E E E +E E Q E E E E Q Q E E E E +E E Q E E E E
 
 |---------------|------------------|---------------|-------------------||
 |---------------|------------------|---------------|-------------------||
 |-6--6--6-6-6-6-|-(6)-6-6--6-6-6-6-|-6--6--6-6-6-6-|-(6)-6-6--6-6-6-6--||
 |-4--4--4-4-4-0-|-(0)-0-0--0-0-0-0-|-0--0--0-0-0-0-|-(0)-2-2--2-2-2-2--||
 |---------------|------------------|---------------|-------2--2-2-2-2--||
 |---------------|------------------|---------------|-------2--2-2-2-2--||

|
| Gtr I
| <
| W W W W
 
 |---------------|------------------|---------------|-------------------||
 |---------------|------------------|---------------|-------------------||
 |---------------|------------------|---------------|-------------------||
 |---------------|------------------|---------------|--2----------------||
 |---------------|------------------|---------------|--2----------------||
 |---------------|------------------|---------------|--2----------------||

Pre-Verse
Q=177
$
[F#5]Gtr I[C#5/F#D5] [E5]
Q Q E E E E +E E Q E E E E Q Q E E E E +E E Q E E E E
 
 ||----------------|------------------|---------------|-------------------||
 ||o---------------|------------------|---------------|------------------o||
 ||----------------|------------------|---------------|-------------------||
 ||--4--4--6-6-6-0-|-(0)-0-0--0-0-0-0-|-0--0--0-0-0-0-|-(0)-2-2--2-2-2-2--||
 ||o-4--4--4-4-4-0-|-(0)-0-0--0-0-0-0-|-0--0--0-0-0-0-|-(0)-2-2--2-2-2-2-o||
 ||--4--4--4-4-4-0-|-(0)-0-0--0-0-0-0-|-0--0--0-0-0-0-|-(0)-2-2--2-2-2-2--||

|
| Gtr II
| Q Q E E E E +E E Q E E E E Q Q E E E E +E E Q E E E E
 
 ||----------------|------------------|---------------|-------------------||
 ||o---------------|------------------|---------------|------------------o||
 ||--6--6--6-6-6-6-|-(6)-6-6--6-6-6-6-|-6--6--6-6-6-6-|-(6)-6-6--6-6-6-6--||
 ||--4--4--4-4-4-0-|-(0)-0-0--0-0-0-0-|-0--0--0-0-0-0-|-(0)-2-2--2-2-2-2--||
 ||o---------------|------------------|---------------|-------2--2-2-2-2-o||
 ||----------------|------------------|---------------|-------2--2-2-2-2--||

Verse
E [F#5] E E E E E E E [D5] q q q q
 
 |-x-12-12-12-12-12-12-12-|--9----9----9----9---|
 |-x-10-10-10-10-10-10-10-|-10---10---10---10---|
 |-x-11-11-11-11-11-11-11-|-11---11---11---11---|
 |------------------------|---------------------|
 |------------------------|---------------------|
 |------------------------|---------------------|

|
 
 | PM--------------------------------------------

| E E E E E E E E E E E E E E E E
 
 |------------------------|---------------------|
 |------------------------|---------------------|
 |------------------------|---------------------|
 |------------------------|---------------------|
 |-x--4--4--4--4--4--4--4-|--0-0--0-0--0-0--0-0-|
 |-x--4--4--4--4--4--4--4-|--0-0--0-0--0-0--0-0-|

q q q E E E [E5] E E E E E E E
 
 |--9----9----9----9--9-|----7--7--7--7--7--7--7--|
 |-10---10---10---10-10-|----9--9--9--9--9--9--9--|
 |-11---11---11---11-11-|---11-11-11-11-11-11-11--|
 |----------------------|-------------------------|
 |----------------------|-------------------------|
 |----------------------|-------------------------|

|
 
 |-----------------------------------------|

| E E E E E E E E E E E E E E E E
 
 |----------------------|-------------------------|
 |----------------------|-------------------------|
 |----------------------|-------------------------|
 |----------------------|----------------------2--|
 |--0-0--0-0--0-0--0--0-|-0--2--2--2--2--2--2--2--|
 |--0-0--0-0--0-0--0--0-|-0--2--2--2--2--2--2--2--|

+E [F#5] E E E E E E E [D5] q q q q
 
 ||---(7)-12-12-12-12-12-12-12-|--9----9----9----9---|
 ||o--(9)-10-10-10-10-10-10-10-|-10---10---10---10---|
 ||--(11)-11-11-11-11-11-11-11-|-11---11---11---11---|
 ||----------------------------|---------------------|
 ||o---------------------------|---------------------|
 ||----------------------------|---------------------|

|
 
 | PM-----------------------------------------

| +E E E E E E E E E E E E E E E E
 
 ||----------------------------|---------------------|
 ||o---------------------------|---------------------|
 ||----------------------------|---------------------|
 ||---(2)----------------------|---------------------|
 ||o--(2)--4--4--4--4--4--4--4-|--0-0--0-0--0-0--0-0-|
 ||---(2)--4--4--4--4--4--4--4-|--0-0--0-0--0-0--0-0-|

To Coda
q q q E E E [E5] E E E E E E E 3x
 
 |--9----9----9----9--9-|----7--7--7--7--7--7--7--||
 |-10---10---10---10-10-|----9--9--9--9--9--9--9-o||
 |-11---11---11---11-11-|---11-11-11-11-11-11-11--||
 |----------------------|-------------------------||
 |----------------------|------------------------o||
 |----------------------|-------------------------||

|
 
 |-----------------------------------------|

| E E E E E E E E E E E E E E E E 3x
 
 |----------------------|-------------------------||
 |----------------------|------------------------o||
 |----------------------|-------------------------||
 |----------------------|----------------------2--||
 |--0-0--0-0--0-0--0--0-|-0--2--2--2--2--2--2--2-o||
 |--0-0--0-0--0-0--0--0-|-0--2--2--2--2--2--2--2--||

Bridge
[D5]Gtr III
q E q E q E q E q E E
 
 |---------------------|-----------------------|
 |---------------------|-----------------------|
 |-6---(6)-7---(7)-6---|-(6)-4---(4)-6---(6)-7-|
 |---------------------|-----------------------|
 |---------------------|-----------------------|
 |---------------------|-----------------------|

|
| Gtr II
 
 | PM-------------------------------------------

| E E E E E E E E E E E E E E E E
 
 |---------------------|-----------------------|
 |---------------------|-----------------------|
 |---------------------|-----------------------|
 |---------------------|-----------------------|
 |-0-0--0--0-0--0--0-0-|--0--0-0--0--0-0--0--0-|
 |-0-0--0--0-0--0--0-0-|--0--0-0--0--0-0--0--0-|

|
| Gtr I
| W +W
 
 |---------------------|-----------------------|
 |---------------------|-----------------------|
 |---------------------|-----------------------|
 |-0-------------------|-(0)-------------------|
 |-0-------------------|-(0)-------------------|
 |-0-------------------|-(0)-------------------|

E E q E q E q [E5] E q [B5/E] E Q[C#5/F#]
 
 |-------------------------|-------------------------||
 |-------------------------|-------------------------||
 |-----(7)-6---(6)-4---(4)-|--6-----(6)-7---(7)------||
 |-------------------------|-------------------------||
 |-------------------------|-------------------------||
 |-------------------------|-------------------------||

|
 
 |--------------------------------------|

| E E E E E E E E E E E E E E E E
 
 |-------------------------|-------------------------||
 |-------------------------|-------------------------||
 |-------------------------|--------------4--4--4----||
 |-------------------------|--------------4--4--4-6--||
 |--0---0--0-0--0--0-0--0--|--0---2--2--2-2--2--2-4--||
 |--0---0--0-0--0--0-0--0--|--0---2--2--2-2--2--2-4--||

|
| +W +H.. E
 
 |-------------------------|-------------------------||
 |-------------------------|-------------------------||
 |-------------------------|-------------------------||
 |-(0)---------------------|-(0)------------------6--||
 |-(0)---------------------|-(0)------------------4--||
 |-(0)---------------------|-(0)------------------4--||

Chorus
Gtr I[A5] [D5]
+E E Q E E Q E E Q E E E E +E E Q E E Q E E Q E q E
 
 ||------------------|----------------|-----------------|---------------|
 ||o-----------------|----------------|-----------------|---------------|
 ||------------------|----------------|-----------------|---------------|
 ||--(6)-6-6--6-6-6--|-6-6-6--6-6-6-7-|-(7)-7-7--7-7-7--|-7-7-7--7-7--0-|
 ||o-(4)-4-4--4-4-4--|-4-4-4--4-4-4-7-|-(7)-7-7--7-7-7--|-7-7-7--7-7--0-|
 ||--(4)-4-4--4-4-4--|-4-4-4--4-4-4-7-|-(7)-7-7--7-7-7--|-7-7-7--7-7--0-|

|
| Gtr II
| +E E Q E E Q E E Q E E E E +E E Q E E Q E E Q E q E
 
 ||------------------|----------------|-----------------|---------------|
 ||o-----------------|----------------|-----------------|---------------|
 ||------------------|----------------|-----------------|---------------|
 ||--(6)-6-6--6-6-6--|-6-6-6--6-6-6-7-|-(7)-7-7--7-7-7--|-7-7-7--7-7--0-|
 ||o-(4)-4-4--4-4-4--|-4-4-4--4-4-4-7-|-(7)-7-7--7-7-7--|-7-7-7--7-7--0-|
 ||--(4)-4-4--4-4-4--|-4-4-4--4-4-4-7-|-(7)-7-7--7-7-7--|-7-7-7--7-7--0-|

+E E Q E E Q E E Q E E E [B5] E
 
 |-----------------|-----------------|
 |-----------------|-----------------|
 |-----------------|-----------------|
 |-(0)-0-0--0-0-0--|-0-0-0--0-0-0--9-|
 |-(0)-0-0--0-0-0--|-0-0-0--0-0-0-11-|
 |-(0)-0-0--0-0-0--|-0-0-0--0-0-0--9-|

|
| +E E Q E E Q E E Q E E E E
 
 |-----------------|-----------------|
 |-----------------|-----------------|
 |-----------------|-----------------|
 |-(0)-0-0--0-0-0--|-0-0-0--0-0-0--9-|
 |-(0)-0-0--0-0-0--|-0-0-0--0-0-0--9-|
 |-(0)-0-0--0-0-0--|-0-0-0--0-0-0--9-|

1.
[E5]PM--|[C#5/F#]
+E E Q E E Q E E Q E E E E
 
 |-----------------------|---------------------||
 |-----------------------|--------------------o||
 |-----------------------|---------------------||
 |--(9)--9--9---9--9--9--|--9--9--9--------6---||
 |-(11)-11-11--11-11-11--|-11-11-11--2-2-2-4--o||
 |--(9)--9--9---9--9--9--|--9--9--9--2-2-2-4---||

|
| PM--|
| +E E Q E E Q E E Q E E E E
 
 |-----------------------|---------------------||
 |-----------------------|--------------------o||
 |-----------------------|---------------------||
 |--(9)--9--9---9--9--9--|--9--9--9--------6---||
 |--(9)--9--9---9--9--9--|--9--9--9--2-2-2-4--o||
 |--(9)--9--9---9--9--9--|--9--9--9--2-2-2-4---||

2.
[B5] [E5]PM----|
E E Q E E Q E E Q E E E E
 
 |---------------------|-------------------||
 |---------------------|-------------------||
 |---------------------|-------------------||
 |--9--9--9---9--9--9--|--9--9--9----------||
 |-11-11-11--11-11-11--|-11-11-11--2-2-2-2-||
 |--9--9--9---9--9--9--|--9--9--9--2-2-2-2-||

|
| PM----|
| E E Q E E Q E E Q E E E E
 
 |---------------------|-------------------||
 |---------------------|-------------------||
 |---------------------|-------------------||
 |--9--9--9---9--9--9--|--9--9--9----------||
 |--9--9--9---9--9--9--|--9--9--9--2-2-2-2-||
 |--9--9--9---9--9--9--|--9--9--9--2-2-2-2-||

Bridge
D.S. al Coda
N.C. C#m7/E
Gtrs I, II
Q Q E E E E +E E Q E E E E Q Q E E E E +E E Q E E E E
 
 |---------------|------------------|---------------|-------------------||
 |---------------|------------------|---------------|-------------------||
 |-6--6--6-6-6-6-|-(6)-6-6--6-6-6-6-|-6--6--6-6-6-6-|-(6)-6-6--6-6-6-6--||
 |-4--4--4-4-4-0-|-(0)-0-0--0-0-0-0-|-0--0--0-0-0-0-|-(0)-2-2--2-2-2-2--||
 |---------------|------------------|---------------|-------2--2-2-2-2--||
 |---------------|------------------|---------------|-------2--2-2-2-2--||

Bridge
&
[D5]Gtr I[C#5/F#]
>
W +W +W +H.. E
 
 |----------|------------|------------|---------------||
 |----------|------------|------------|---------------||
 |----------|------------|------------|---------------||
 |-0--------|-(0)--------|-(0)--------|-(0)--------6--||
 |-0--------|-(0)--------|-(0)--------|-(0)--------4--||
 |-0--------|-(0)--------|-(0)--------|-(0)--------4--||

|
| Gtr II
| >
| W +W +W +H.. E
 
 |----------|------------|------------|---------------||
 |----------|------------|------------|---------------||
 |----------|------------|------------|---------------||
 |-0--------|-(0)--------|-(0)--------|-(0)--------6--||
 |-0--------|-(0)--------|-(0)--------|-(0)--------4--||
 |-0--------|-(0)--------|-(0)--------|-(0)--------4--||

Chorus
Gtr I[A5] [D5]
+E E Q E E Q E E Q E E E E +E E Q E E Q E E Q E E E E
 
 ||------------------|----------------|-----------------|----------------|
 ||o-----------------|----------------|-----------------|----------------|
 ||------------------|----------------|-----------------|----------------|
 ||--(6)-6-6--6-6-6--|-6-6-6--6-6-6-7-|-(7)-7-7--7-7-7--|-7-7-7--7-7-7-0-|
 ||o-(4)-4-4--4-4-4--|-4-4-4--4-4-4-7-|-(7)-7-7--7-7-7--|-7-7-7--7-7-7-0-|
 ||--(4)-4-4--4-4-4--|-4-4-4--4-4-4-7-|-(7)-7-7--7-7-7--|-7-7-7--7-7-7-0-|

|
| Gtr II
| +E E Q E E Q E E Q E E E E +E E Q E E Q E E Q E E E E
 
 ||------------------|----------------|-----------------|----------------|
 ||o-----------------|----------------|-----------------|----------------|
 ||------------------|----------------|-----------------|----------------|
 ||--(6)-6-6--6-6-6--|-6-6-6--6-6-6-7-|-(7)-7-7--7-7-7--|-7-7-7--7-7-7-0-|
 ||o-(4)-4-4--4-4-4--|-4-4-4--4-4-4-7-|-(7)-7-7--7-7-7--|-7-7-7--7-7-7-0-|
 ||--(4)-4-4--4-4-4--|-4-4-4--4-4-4-7-|-(7)-7-7--7-7-7--|-7-7-7--7-7-7-0-|

+E E Q E E Q E E Q E E E [B5] E
 
 |-----------------|-----------------|
 |-----------------|-----------------|
 |-----------------|-----------------|
 |-(0)-0-0--0-0-0--|-0-0-0--0-0-0--9-|
 |-(0)-0-0--0-0-0--|-0-0-0--0-0-0-11-|
 |-(0)-0-0--0-0-0--|-0-0-0--0-0-0--9-|

|
| +E E Q E E Q E E Q E E E E
 
 |-----------------|-----------------|
 |-----------------|-----------------|
 |-----------------|-----------------|
 |-(0)-0-0--0-0-0--|-0-0-0--0-0-0--9-|
 |-(0)-0-0--0-0-0--|-0-0-0--0-0-0--9-|
 |-(0)-0-0--0-0-0--|-0-0-0--0-0-0--9-|

1.
[E5]PM--|[C#5/F#]
+E E Q E E Q E E Q E E E E
 
 |-----------------------|---------------------||
 |-----------------------|--------------------o||
 |-----------------------|---------------------||
 |--(9)--9--9---9--9--9--|--9--9--9--------6---||
 |-(11)-11-11--11-11-11--|-11-11-11--2-2-2-4--o||
 |--(9)--9--9---9--9--9--|--9--9--9--2-2-2-4---||

|
| PM--|
| +E E Q E E Q E E Q E E E E
 
 |-----------------------|---------------------||
 |-----------------------|--------------------o||
 |-----------------------|---------------------||
 |--(9)--9--9---9--9--9--|--9--9--9--------6---||
 |--(9)--9--9---9--9--9--|--9--9--9--2-2-2-4--o||
 |--(9)--9--9---9--9--9--|--9--9--9--2-2-2-4---||

2.
[B5] E E Q E E Q E E Q [E5]E E E E
 
 |---------------------|-------------------||
 |---------------------|-------------------||
 |---------------------|-------------------||
 |--9--9--9---9--9--9--|--9--9--9--2-2-2-2-||
 |-11-11-11--11-11-11--|-11-11-11--2-2-2-2-||
 |--9--9--9---9--9--9--|--9--9--9--2-2-2-2-||

|
| E E Q E E Q E E Q E E E E
 
 |---------------------|-------------------||
 |---------------------|-------------------||
 |---------------------|-------------------||
 |--9--9--9---9--9--9--|--9--9--9--2-2-2-2-||
 |--9--9--9---9--9--9--|--9--9--9--2-2-2-2-||
 |--9--9--9---9--9--9--|--9--9--9--2-2-2-2-||

Breakdown
[D] [Dsus2] [D] [Dsus2] 
[6/4]  
 
 PM----------------------------------------------|

[E] [E] [E] [E] [E] [E] [E] [E] [E] [E] [E] [E] [E] [E] [E] [E] [E] [E] [E] [E] [E] [E] [E] [E]  
 
 |-------------------------|-------------------------|
 |-7-7-7-7-7-7-5-5-5-5-5-5-|-7-7-7-7-7-7-5-5-5-5-5-5-|
 |-7-7-7-7-7-7-7-7-7-7-7-7-|-7-7-7-7-7-7-7-7-7-7-7-7-|
 |-------------------------|-------------------------|
 |-------------------------|-------------------------|
 |-------------------------|-------------------------|

|
 
 | PM----------------------------------------------|

| E E E E E E E E E E E E E E E E E E E E E E E E
 
 |-5-5-5-5-5-5-5-5-5-5-5-5-|-5-5-5-5-5-5-5-5-5-5-5-5-|
 |-------------------------|-------------------------|
 |-------------------------|-------------------------|
 |-------------------------|-------------------------|
 |-------------------------|-------------------------|
 |-------------------------|-------------------------|

[D] [Dsus2] [D] [E/D]  
 
 PM--------------------|

[E] [E] [E] [E] [E] [E] [E] [E] [E] [E] [E] [E] [E] [E] [E] [E] [E] [E] [E] [E] [E] [E] [E] [E]  
 
 |-------------------------|-------------4-4-4-4-4-4-||
 |-7-7-7-7-7-7-5-5-5-5-5-5-|-7-7-7-7-7-7-5-5-5-5-5-5-||
 |-7-7-7-7-7-7-7-7-7-7-7-7-|-7-7-7-7-7-7-7-7-7-7-7-7-||
 |-------------------------|-------------------------||
 |-------------------------|-------------------------||
 |-------------------------|-------------------------||

|
 
 | PM--------------------|

| E E E E E E E E E E E E E E E E E E E E E E E E
 
 |-5-5-5-5-5-5-5-5-5-5-5-5-|-------------4---4---4---||
 |-------------------------|-5-5-5-5-5-5-5-5-5-5-5-5-||
 |-------------------------|-7-7-7-7-7-7-7-7-7-7-7-7-||
 |-------------------------|-------------------------||
 |-------------------------|-------------------------||
 |-------------------------|-------------------------||

Interlude
[Eadd11/F#]Gtr IV[Esus4/F#]
Q. Q E Q E E E E Q. Q E Q E E E E
 
 ||--0------0--0-0--0-0-0--0--|--0----0--0-0--0-0-0-0-|
 ||o-9------9--9-9--9-9-9--9--|--9----9--9-9--9-9-9-0-|
 ||--9------9--9-9--9-9-9--9--|--9----9--9-9--9-9-9-9-|
 ||--7------7--7-7--7-7-7--7--|--7----7--7-7--7-7-7-7-|
 ||o-9------9--9-9--9-9-9--9--|--9----9--9-9--9-9-9-9-|
 ||---------------------------|-----------------------|

|
| Gtr V
| E E E W +E +W.
 
 ||-------9-------------------|-----------------------|
 ||o----7---7-------------(7)-|-(7)-------------------|
 ||--9------------------------|-----------------------|
 ||---------------------------|-----------------------|
 ||o--------------------------|-----------------------|
 ||---------------------------|-----------------------|

[C#madd11/F#]Q. Q E Q E E E [E5/F#] E [EsC#madd11/F#]E Q Q E Q E E E E
 
 |-0------0--0-0--0-0-0--0--|-0--0----0--0-0--0-0-0--0---||
 |-7------7--7-7--7-7-7--0--|-7--7----7--7-7--7-7-7--7--o||
 |-6------6--6-6--6-6-6--4--|-4s=6----6--6-6--6-6-6--6---||
 |-4------4--4-4--4-4-4--4--|-4-(4)---4--4-4--4-4-4--4---||
 |--------------------------|---------------------------o||
 |--------------------------|----------------------------||

|
| E E E W +E E E E W +E
 
 |------9-------------------|-------7--------------------||
 |----7---7-------------(7)-|----7----7-------------(7)-o||
 |-9------------------------|-9--------------------------||
 |--------------------------|----------------------------||
 |--------------------------|---------------------------o||
 |--------------------------|----------------------------||

[Eadd11/F#]Q. Q E Q E E E E Q. Q E Q E E E [Esus4/F#]E
 
 |-0-----0---0-0--0-0-0-0-|-0-----0---0-0--0-0-0-0-|
 |-9-----9---9-9--9-9-9-9-|-9-----9---9-9--9-9-9-0-|
 |-9-----9---9-9--9-9-9-9-|-9-----9---9-9--9-9-9-9-|
 |-7-----7---7-7--7-7-7-7-|-7-----7---7-7--7-7-7-7-|
 |-9-----9---9-9--9-9-9-9-|-9-----9---9-9--9-9-9-9-|
 |------------------------|------------------------|

|
| Q Q q Q Q Q Q Q q Q Q Q
 
 |------------------------|------------------------|
 |-9-------9---7------7---|-9-------9---7------7---|
 |-----9----------9-------|-----9----------9-------|
 |------------------------|------------------------|
 |------------------------|------------------------|
 |------------------------|------------------------|

[C#madd11/F#]Q. Q E Q E E E [E5/FEsC#madd11/F#]E E Q Q E Q E E E E
 
 |-0-----0---0-0--0-0-0-0-|-0--0----0---0-0--0-0-0-0-|
 |-7-----7---7-7--7-7-7-0-|-7--7----7---7-7--7-7-7-7-|
 |-6-----6---6-6--6-6-6-4-|-4s=6----6---6-6--6-6-6-6-|
 |-4-----4---4-4--4-4-4-4-|-4-(4)---4---4-4--4-4-4-4-|
 |------------------------|--------------------------|
 |------------------------|--------------------------|

|
| Q Q q Q Q Q Q Q q Q Q Q
 
 |-9-------9---7------7---|-9---------9---7------7---|
 |-----7----------7-------|-------7----------7-------|
 |------------------------|--------------------------|
 |------------------------|--------------------------|
 |------------------------|--------------------------|
 |------------------------|--------------------------|

[Eadd11/F#]Q. Q E Q E E E E Q. Q E Q E E E [Esus4/F#]E
 
 |-0-----0---0-0--0-0-0-0-|-0-----0---0-0--0-0-0-0-|
 |-9-----9---9-9--9-9-9-9-|-9-----9---9-9--9-9-9-0-|
 |-9-----9---9-9--9-9-9-9-|-9-----9---9-9--9-9-9-9-|
 |-7-----7---7-7--7-7-7-7-|-7-----7---7-7--7-7-7-7-|
 |-9-----9---9-9--9-9-9-9-|-9-----9---9-9--9-9-9-9-|
 |------------------------|------------------------|

|
| Q Q q Q Q Q Q Q q Q Q Q
 
 |------------------------|------------------------|
 |-9-------9---7------7---|-9-------9---7------7---|
 |-----9----------9-------|-----9----------9-------|
 |------------------------|------------------------|
 |------------------------|------------------------|
 |------------------------|------------------------|

[C#madd11/F#]Q. Q E Q E E E [E5/FEsC#madd11/F#]E E Q Q E Q E E E E
 
 |-0------0---0-0---0-0-0-0-|-0--0----0---0-0---0-0-0-0-||
 |-7------7---7-7---7-7-7-0-|-7--7----7---7-7---7-7-7-7-||
 |-6------6---6-6---6-6-6-4-|-4s=6----6---6-6---6-6-6-6-||
 |-4------4---4-4---4-4-4-4-|-4-(4)---4---4-4---4-4-4-4-||
 |--------------------------|---------------------------||
 |--------------------------|---------------------------||

|
| E E E E E E E E E E E E E E E E E E E E E E E E
 
 |-9----9---9---7---7---7---|-9-----9---9---7---7---7---||
 |----7---7---7---7---7---7-|----7----7---7---7---7---7-||
 |--------------------------|---------------------------||
 |--------------------------|---------------------------||
 |--------------------------|---------------------------||
 |--------------------------|---------------------------||

Out-Chorus
[C#5/F#]Gtr I
[E] [E] [E] [E] [E] [E] [E] [E] [E] [E] [E] [E] [E] [E] [E] [E] [E] [E] [E] [E] [E] [E] [E] [E]  
 
 ||--------------------------|-------------------------|
 ||o-------------------------|-------------------------|
 ||--------------------------|-------------------------|
 ||--6-6-6-6-6-6-6-6-6-6-6-6-|-6-6-6-6-6-6-6-6-6-6-6-6-|
 ||o-4-4-4-4-4-4-4-4-4-4-4-4-|-4-4-4-4-4-4-4-4-4-4-4-4-|
 ||--4-4-4-4-4-4-4-4-4-4-4-4-|-4-4-4-4-4-4-4-4-4-4-4-4-|

|
| Gtr II
| E E E E E E E E E E E E E E E E E E E E E E E E
 
 ||--------------------------|-------------------------|
 ||o-5-5-5-5-5-5-5-5-5-5-5-5-|-5-5-5-5-5-5-5-5-5-5-5-5-|
 ||--6-6-6-6-6-6-6-6-6-6-6-6-|-6-6-6-6-6-6-6-6-6-6-6-6-|
 ||--6-6-6-6-6-6-6-6-6-6-6-6-|-6-6-6-6-6-6-6-6-6-6-6-6-|
 ||o-4-4-4-4-4-4-4-4-4-4-4-4-|-4-4-4-4-4-4-4-4-4-4-4-4-|
 ||--4-4-4-4-4-4-4-4-4-4-4-4-|-4-4-4-4-4-4-4-4-4-4-4-4-|

[D5] [E5]  
[E] [E] [E] [E] [E] [E] [E] [E] [E] [E] [E] [E] [E] [E] [E] [E] [E] [E] [E] [E] [E] [E] [E] [E]  
 
 |-------------------------|--------------------------||
 |-------------------------|-------------------------o||
 |-------------------------|--------------------------||
 |-0-0-0-0-0-0-0-0-0-0-0-0-|-2-2-2-2-2-2-2-2-2-2-2-2--||
 |-0-0-0-0-0-0-0-0-0-0-0-0-|-2-2-2-2-2-2-2-2-2-2-2-2-o||
 |-0-0-0-0-0-0-0-0-0-0-0-0-|-2-2-2-2-2-2-2-2-2-2-2-2--||

|
| E E E E E E E E E E E E E E E E E E E E E E E E
 
 |-------------------------|--------------------------||
 |-5-5-5-5-5-5-5-5-5-5-5-5-|-5-5-5-5-5-5-5-5-5-5-5-5-o||
 |-2-2-2-2-2-2-2-2-2-2-2-2-|-2-2-2-2-2-2-2-2-2-2-2-2--||
 |-0-0-0-0-0-0-0-0-0-0-0-0-|-2-2-2-2-2-2-2-2-2-2-2-2--||
 |-0-0-0-0-0-0-0-0-0-0-0-0-|-2-2-2-2-2-2-2-2-2-2-2-2-o||
 |-0-0-0-0-0-0-0-0-0-0-0-0-|-2-2-2-2-2-2-2-2-2-2-2-2--||

[C#5/F#]  
[E] [E] [E] [E] [E] [E] [E] [E] [E] [E] [E] [E] [E] [E] [E] [E] [E] [E] [E] [E] [E] [E] [E] [E]  
 
 ||---4h5-0-5h7-0---7h=9-0-5h7-0-|--4h5-0-5h7-0-7h9-0-5h7-0-|
 ||o-----------------------------|--------------------------|
 ||------------------------------|--------------------------|
 ||------------------------------|--------------------------|
 ||o-----------------------------|--------------------------|
 ||------------------------------|--------------------------|

|
| E E E E E E E E E E E E E E E E E E E E E E E E
 
 ||------------------------------|--------------------------|
 ||o-----------------------------|--------------------------|
 ||------------------------------|--------------------------|
 ||---6-6-6-6-6-6---6--6-6-6-6-6-|--6-6-6-6-6-6-6-6-6-6-6-6-|
 ||o--4-4-4-4-4-4---4--4-4-4-4-4-|--4-4-4-4-4-4-4-4-4-4-4-4-|
 ||---4-4-4-4-4-4---4--4-4-4-4-4-|--4-4-4-4-4-4-4-4-4-4-4-4-|

|
| Gtr VI
| <
| H. +H. W.
 
 ||--14-----------(14)-----------|-16-----------------------|
 ||o-----------------------------|--------------------------|
 ||--11-----------(11)-----------|-13-----------------------|
 ||------------------------------|--------------------------|
 ||o-----------------------------|--------------------------|
 ||------------------------------|--------------------------|

[D5] [E5]  
[E] [E] [E] [E] [E] [E] [E] [E] [E] [E] [E] [E] [E] [E] [E] [E] [E] [E] [E] [E] [E] [E] [E] [E]  
 
 |--4h5-0-5h7-0-7h9-0-5h7-0-|--4h5-0-5h7-0-7h9-0-5h7-0--||
 |--------------------------|--------------------------o||
 |--------------------------|---------------------------||
 |--------------------------|---------------------------||
 |--------------------------|--------------------------o||
 |--------------------------|---------------------------||

|
| E E E E E E E E E E E E E E E E E E E E E E E E
 
 |--------------------------|---------------------------||
 |--------------------------|--------------------------o||
 |--------------------------|---------------------------||
 |--0-0-0-0-0-0-0-0-0-0-0-0-|--2-2-2-2-2-2-2-2-2-2-2-2--||
 |--0-0-0-0-0-0-0-0-0-0-0-0-|--2-2-2-2-2-2-2-2-2-2-2-2-o||
 |--0-0-0-0-0-0-0-0-0-0-0-0-|--2-2-2-2-2-2-2-2-2-2-2-2--||

|
| W. W.
 
 |-17-----------------------|-16------------------------||
 |--------------------------|--------------------------o||
 |-14-----------------------|-13------------------------||
 |--------------------------|---------------------------||
 |--------------------------|--------------------------o||
 |--------------------------|---------------------------||

[F#5] >
W. +W. +W.
 
 |--4-------------|--(4)------------|--(4)----*|
 |----------------|-----------------|---------*|
 |----------------|-----------------|---------*|
 |----------------|-----------------|---------*|
 |----------------|-----------------|---------*|
 |----------------|-----------------|---------*|

|
| >
| W. +W. +W.
 
 |----------------|-----------------|---------*|
 |----------------|-----------------|---------*|
 |----------------|-----------------|---------*|
 |--4-------------|--(4)------------|--(4)----*|
 |--4-------------|--(4)------------|--(4)----*|
 |--4-------------|--(4)------------|--(4)----*|

|
| >
| W. +W. +W.
 
 |-16-------------|-(16)------------|-(16)----*|
 |----------------|-----------------|---------*|
 |-13-------------|-(13)------------|-(13)----*|
 |----------------|-----------------|---------*|
 |-11-------------|-(11)------------|-(11)----*|
 |----------------|-----------------|---------*|
 --------------------------------------------------------------------------------

Duration Legend
 
 ---------------
 W - whole; H - half; Q - quarter; E - 8th; S - 16th; T - 32nd; X - 64th; a - acciaccatura

+ - note tied to previous; . - note dotted; .. - note double dotted
Uncapitalized letters represent notes that are staccato (1/2 duration)
Irregular groupings are notated above the duration line
Duration letters will always appear directly above the note/fret number it represents the
duration for. Duration letters with no fret number below them represent rests. Multi-
bar rests are notated in the form Wxn, where n is the number of bars to rest for. Low
melody durations appear below the staff
Tablature Legend
 
 ----------------

h - hammer-on
p - pull-off
b - bend
pb - pre-bend
r - bend release (if no number after the r, then release immediately)
/\ - slide into or out of (from/to "nowhere")
s - legato slide
S - shift slide
<n> - natural harmonic
(n) - artificial harmonic
n(n) - tapped harmonic
~ - vibrato
tr - trill
T - tap
TP - trem. picking
PM - palm muting
\n/ - tremolo bar dip; n = amount to dip
\n - tremolo bar down
n/ - tremolo bar up
/n\ - tremolo bar inverted dip
= - hold bend; also acts as connecting device for hammers/pulls
<> - volume swell (louder/softer)
x - on rhythm slash represents muted slash
o - on rhythm slash represents single note slash
Misc Legend
 
 -----------

| - bar
|| - double bar
||o - repeat start
o|| - repeat end
*| - double bar (ending)
: - bar (freetime)
$ - Segno
& - Coda
Tempo markers - <E/E./Q/Q./H/H.> = BPM(8/16=s8/s16), where s8 = swing 8ths, s16 = swing 16ths

Important: The song above is NOT stored on the Chordie server. The original song is hosted at www.xguitar.com. Chordie works as a search engine and provides on-the-fly formatting. Chordie does not index songs against artists'/composers' will. To remove this song please click here.

Text color:
Chord color:
Chord grids: 
Font size:    
Page size: 

A5 B5 B5/E C#5/F# D D5 Dsus2 E E/D E5 E5/F# Esus4/F# F#5
Rate #3 of 6 versions

Jango Player

Login - add to songbook

SHARE PAGE  




You need to log in to post comments