Guitar Tabs, Chords and Lyrics
Major upgrade!! After one year development the new version of Chordie is now online! Please give feedback.


Poetic Tragedy   The Used

 
 E--------------------------------------------------------------------------------
 B---------7-------------------7----------------------------7---------------------
 G-----------7--------------0-----7-----------------------0---7-------------------
 D-----5-----------------0h5-------------------------Oh5--------------------------
 A---5----------------------------------------------------------------------------
 D--------------------------------------------------------------------------------
 E---------------------------------------------------
 B--------------5------------5h7---------------------
 G-----------0---------------------------------------
 D-----0h5-------0-----------------------------------
 A---------------------------------------------------
 D---------------------------------------------------

 


 


 OK this is the part just before the chorus, right after the 1st and 2nd verses. Its is


 that high-pitched squeal you hear.


 

 
 E----------------------------------------/-----------------------*6-*6----------------
 B--*0-----------------------------------/---------------------------------------------
 G--*0-------------[first verse/chorus]-/----[second verse/chorus]---------------------
 D-------------------------------------/-----------------------------------------------
 A------------------------------------/------------------------------------------------
 D-----------------------------------/-------------------------------------------------

 


 


 CHORUS sorry i didnt do the strumming patterns, but theyre really easy to figure out.


 ( )= 2nd time only


 

 
 E---------------------------------------------------------------------------
 B---------------------------------------------------------------------------
 G---7---------7--------7777---------------------------------------(999999999)-
 D---7---------7--------7777-----xx------2------2--------2222------(xxxxxxxxx)-
 A---5---------5--------5555-----xx------2------2--------2222------(777777777)-
 D-------------------------------xx -----0------0--------0000----------------

 


 BRIDGE (He Feels alone/his heart in his hand; hes alone/ he feels alone/ i feel)


 

 
 E---------------------------------------------------------------------------
 B---------------------------------------------------------------------------
 G---------------------------------------------------------------------------
 D----7777777777777777----------2222222222222222-----------------------------
 A----7777777777777777----------2222222222222222-----------------------------
 D----5555555555555555----------0000000000000000-----------------------------

 


 


 Break/Outro (the part when hes screaming : AND HE TAKES HIS LIFE/ AND HE TAKES HIS LIFE)


 

 
 E----------------------------------------------------------------------
 B----------------------------------------------------------------------
 G-11------11111111-----------1212121212-------11111111-----(1111111)---
 D- x------x-x-x-x------------x-x-x-x-x--------x-x-x-x------(0-0-0-0)---
 A--9------9-9-9-9------------1010101010-------10101010-----(0-0-0-0)---
 D--0------0-0-0-0------------0-0-0-0-0--------0-0-0-0------(0-0-0-0)---

 


 


 ENDING (the part played by violins) i found this part sounds cool if you play the


 chords lightly, with low volume-swells


 

 
 E--------------------------------------
 B--------------------------------------
 G-----777------------------------------
 D-----777-----------222----------------
 A-----555-----------222----------------
 D-------------------000----------------


Important: The song above is NOT stored on the Chordie server. The original song is hosted at www.xguitar.com. Chordie works as a search engine and provides on-the-fly formatting. Chordie does not index songs against artists'/composers' will. To remove this song please click here.

This song is displayed as text-only. Transposing and tuning is only available for chordpro-songs.
Rate #3 of 5 versions

Jango Player

Login - add to songbook

SHARE PAGE  




You need to log in to post comments