Guitar Tabs, Chords and Lyrics
Major upgrade!! After one year development the new version of Chordie is now online! Please give feedback.


Three Doors  VAST

Drop D Tuning (DADGBE)
Main riff:
 
 e|---0--0-0-0-0-0-|-0---0-0--0--0--0----0--0--
 B|---0--0-0-0-0-0-|-0---0-0--0--0--0----0--0--
 G|--10-10-9-9-8-8-|-9---9-9-10-10-13---13-13-- x2
 D|---X--X-X-X-X-X-|-X---X-X--X--X--X----X--X--
 A|---8--8-7-7-6-6-|-7---7-7--8--8-11---11-11--
 D|----------------|---------------------------
 e|---0--0-0-0-0-0-|-0---0-0--0--0--0----0--0--0----0--0-|------------------------
 B|---0--0-0-0-0-0-|-0---0-0--0--0--0----0--0--0----0--0-|------------------------
 G|--10-10-9-9-8-8-|-9---9-9-10-10-16---16-16-14---14-14-|-13/14\13-----13/14\13--
 D|---X--X-X-X-X-X-|-X---X-X--X--X--X----X--X- X----X--X-|--X--X--X------X--X--X--
 A|---8--8-7-7-6-6-|-7---7-7--8--8-14---14-14-12---12-13-|-11/12\11-----11/12\11--
 D|----------------|-------------------------------------|-----------14-----------
 e|---0--0-0-0-0-0-|-0---0-0--0--0--0----0--0--
 B|---0--0-0-0-0-0-|-0---0-0--0--0--0----0--0--
 G|--10-10-9-9-8-8-|-9---9-9-10-10-13---13-13-- x2
 D|---X--X-X-X-X-X-|-X---X-X--X--X--X----X--X--
 A|---8--8-7-7-6-6-|-7---7-7--8--8-11---11-11--
 D|----------------|---------------------------
 e|---0--0-0-0-0-0-|-0---0-0--0--0--0----0--0--0----0--0-|------------------------
 B|---0--0-0-0-0-0-|-0---0-0--0--0--0----0--0--0----0--0-|------------------------
 G|--10-10-9-9-8-8-|-9---9-9-10-10-16---16-16-14---14-14-|-13/14\13---------------
 D|---X--X-X-X-X-X-|-X---X-X--X--X--X----X--X- X----X--X-|--X--X--X-----13/14\13--
 A|---8--8-7-7-6-6-|-7---7-7--8--8-14---14-14-12---12-13-|-11/12\11-----13/14\13--
 D|----------------|-------------------------------------|----------14--13/14\13--

Then same riff above with distortion x2
 
 e|-------------------------------|-------------------------------|
 B|-------------------------------|-------------------------------|
 G|-------------------------------|-------------------------------|
 D|--2-2-2-2-5p4-2-----2-2-5p4-2--|--2-2-2-2-5p4-2-----2-2-5p4-2--| x2
 A|--2-2-2-2-5p4-2-----2-2-5p4-2--|--2-2-2-2-5p4-2-----2-2-5p4-2--|
 D|--2-2-2-2-5p4-2-----2-2-5p4-2--|--2-2-2-2-5p4-2-----2-2-5p4-2--|
 |-pm----| |-pm-| |-pm----| |-pm-|

Verse:
[E5] [A5]  
 
 e|-------------------------------|-------------------------------|
 B|-------------------------------|-------------------------------|
 G|-------------------------------|-------------------------------|
 D|--2-2-2-2-5p4-2-----2-2-5p4-2--|--7-7-7-7-5h7-7-----7-7-5h7-7--| x4
 A|--2-2-2-2-5p4-2-----2-2-5p4-2--|--7-7-7-7-5h7-7-----7-7-5h7-7--|
 D|--2-2-2-2-5p4-2-----2-2-5p4-2--|--7-7-7-7-5h7-7-----7-7-5h7-7--|

(*-similarly palm mute through verse)
Chorus:
[E5] [F5] [G5] [E5]  
 
 e|-----------|-----------|-----------|----------|
 B|-----------|-----------|-----------|----------|
 G|--9--------|-----------|-----------|----------|
 D|--9--------|--5--------|--7--------|--2-------|
 A|--7--------|--5--------|--7--------|--2-------|
 D|-----------|--5--------|--7--------|--2-------|

[G5] [F#5] [A5] [E5] [C5] [B5] [A5] [E5]  
 
 e|-----------|-----------|-----------|------------------------|------|----------|
 B|-----------|-----------|-----------|------------------------|------|----------|
 G|-----------|-----------|-----------|--------5-5-5-5-4-4-4-4-|-2----|----------|
 D|--5--------|--4--------|--7--------|--2-----5-5-5-5-4-4-4-4-|-2----|----------|
 A|--5--------|--4--------|--7--------|--2-----3-3-3-3-2-2-2-2-|-0----|----------|
 D|--5--------|--4--------|--7--------|--2---------------------|------|------2---|

Because........only one leads to...
Bridge:
 
 e|-----------------------------------------------
 B|-----------------------------------------------
 G|-----------------------------------------------
 D|-----------------------------------------------
 A|-----------------------------------------------
 D|--2-2-2-2-2-2-5---4---5p4-0---2-2-2-2-5p4-0-0--
 |----- pm --------------------------------|

Last riff of bridge before chorus:
 
 e|----------------------------------------------------------------
 B|----------------------------------------------------------------
 G|----------------------------------------------------------------
 D|--2-2-2-2-2-2-5---4---5p4-----2-2-2-2-5-7-7-7--7-7-7-7h8p7-5-7--
 A|--------------------------5-------------------------------------
 D|----------------------------------------------------------------


Important: The song above is NOT stored on the Chordie server. The original song is hosted at www.xguitar.com. Chordie works as a search engine and provides on-the-fly formatting. Chordie does not index songs against artists'/composers' will. To remove this song please click here.

Text color:
Chord color:
Chord grids: 
Font size:    
Page size: 

A5 B5 C5 E5 F#5 F5 G5
Rate #1 of 2 versions

Jango Player

Login - add to songbook

SHARE PAGE  




You need to log in to post comments