Guitar Tabs, Chords and Lyrics
Server problems seems to be fixed. Chordie has been experiencing problems with songs disappearing. These issues now seems to be fixed, but still verifying the fix. If you find anything strange, please email admin@chordie.com.


No Killing  Violent Femmes

Song: No Killing
Artist: Violent Femmes
Album: The Blind Leading The Naked
Transcribed by Wesley Torres <wtorres@bucknell.edu>
Intro:
Guitar
 
 e|---------------------------------|---------------------------------|
 B|---------------------------------|---------------------------------|
 G|---------------------------------|---------------------------------|
 D|---------------------------------|---------------------------------|
 A|-7---10----10--12--10--7---7-----|-5-\-7----5\7---10--7---5--5---7-|
 E|-0-------------------------------|-0-------------------------------|

We don't want no killing Lord I don't wanna see my brother die
We don't want no killing Lord I don't wanna see my sister cry
Bass:
 
 G|---------------------------------|---------------------------------|
 D|-----2-2-----2-2-----2-2-----2-2-|-----2-2-----2-2-----2-2-----2-2-|
 A|-----2-2-----2-2-----2-2-----2-2-|-----2-2-----2-2-----2-2-----2-2-|
 E|-0-0-0-0-0-0-0-0-0-0-0-0-0-0-0-0-|-0-0-0-0-0-0-0-0-0-0-0-0-0-0-0-0-|

[Em]We don't want no killing Lord
I don't wanna see my brother die
We don't want no killing Lord
I don't wanna to see my sister cry
I don't wanna see
I don't wanna see I I I I I
[Em]I kn[C]ow that b[D]ad things are going d[Em]own
[Em]I, I[C] know tha[D]t loneliness is all a[Em]round
[Em]I kn[C]ow myself[D] I'm trying and trying to rise a[Em]bove
[Em]I know that the w[C]orld is st[D]arved for l[Em]ove[C] [C]
[Em]Love[C] [C]
[C]Everyday everyday [D]everyday everyday
[Em]I need your love love
[C]And it's a bad bad score
[D]And I need you all the more
[Em]I need your love
[Em]Y'know that there's good
And there's evil
And there's evil
Disguised as good
They're knocking at my door
They're knocking at my door
Don't let them in
Don't let them in
I think it's the Milwaukee Police
I think it's the police
I think it's the polizei
I think it's the polizei I I I
(drums only)
We don't want no killing Lord
I don't wanna see my brother die
We don't want no killing Lord
I don't wanna to see my sister cry
We don't want no killing Lord
I don't wanna see my brother die
We don't want no killing Lord
I don't wanna to see my sister cry
We don't want no killing Lord
I don't wanna see my brother die
We don't want no killing Lord
I don't wanna to see my sister cry
I don't wanna see
I don't wanna see
I don't wanna see
I I I I I I
[Em]I kn[C]ow that b[D]ad things are going d[Em]own
[Em]I, I[C] know tha[D]t loneliness is all a[Em]round
[Em]I kn[C]ow myself[D] I'm trying and trying to rise a[Em]bove
[Em]I know that the w[C]orld is st[D]arved for l[Em]ove[C] [C]
[Em]Love[C] [C]
[C]Everyday everyday [D]everyday everyday
[Em]I need your love love
[C]And it's a bad bad score
[D]And I need you all the more
[Em]I need your love

Important: The song above is NOT stored on the Chordie server. The original song is hosted at www.xguitar.com. Chordie works as a search engine and provides on-the-fly formatting. Chordie does not index songs against artists'/composers' will. To remove this song please click here.

Text color:
Chord color:
Chord grids: 
Font size:    
Page size: 

C D Em
Rate #1 of 2 versions

Jango Player

Login - add to songbook

SHARE PAGE  



You need to log in to post comments