Guitar Tabs, Chords and Lyrics
Server problems seems to be fixed. Chordie has been experiencing problems with songs disappearing. These issues now seems to be fixed, but still verifying the fix. If you find anything strange, please email admin@chordie.com.


Take, Take, Take  The White Stripes

Track: Take, Take, Take
Album: Get Behind Me, Satan
The album hasn't been released yet, but when you all hear the track please rate. Thanks,
This is the general sound of the acoustic guitar on the track.
[G] I was s[A#]itting there in a c[F]omfortable chair and that was all that I [G]needed,
[G] Then my friend off[A#]ered me a d[F]rink for us to share and that was all that I [G]needed,
[F]Then I felt the ease,
But then I'm not too hard to please,
I guess you couldn't call me [G]greedy,
[G] Then I was s[A#]hocked to look up and see [F]Rita Hayworth there in a place so [G]seedy,
[G] She walked [A#]into the bar with her[F] long, red, curly hair and that was all that I[G] needed,
[F]Then I said to my friend,
??Good God, we're lucky men,
Just to even see [G]her'
 
 e|-------------------------------------------------------------------------------|
 b|-------------------------------------------------------------------------------|
 g|-----------------3----------3-3-----------3--3---------------------------------| X5
 d|-5---x-5-5---x-5-3--3--3--x-3-3---3--3--x-3--3--3-5----------------------------|
 a|-5---x-5-5---x-5-1--3--3--x-1-1---3--3--x-1--1--3-5----------------------------|
 e|-3---x-3-3---x-3----1--1--x-------1--1--x-------1-3----------------------------|

Take, take, take,
Take, take, take,
Take, take, take,
[G] I could [A#]not resist, I just h[F]ad to get close to her and that was all that I need[G]ed,
[G] I walked and l[A#]oomed around her t[F]able for a while and that was all that I need[G]ed,
[F]Then I said, ??I hate to bug you ma'am,
But can I have your autograph?'
And that was all that I [G]needed
[G] She pressed her l[A#]ips against[F] a white piece of paper and that was all that I nee[G]ded,
[G] Then I saw[A#] what she wrote, m[F]y heart was in my mouth and that was all that I[G] needed,
[F]Then she handed it to me,
And I think she could see,
That that was all that I [G]needed,
[G] I started to[A#] walk away but then[F] I remembered Hey, I forgot to get a [G]picture,
[G] So I asked her o[A#]ne more time, ??Could I[F] have another favour?' That was I all that I[G] needed.
[F]She was kind and posed with me,
Then I knew my friends would see,
My celebrity [G]meeting,
 
 e|-------------------------------------------------------------------------------|
 b|-------------------------------------------------------------------------------|
 g|-----------------3----------3-3-----------3--3---------------------------------| X5
 d|-5---x-5-5---x-5-3--3--3--x-3-3---3--3--x-3--3--3-5----------------------------|
 a|-5---x-5-5---x-5-1--3--3--x-1-1---3--3--x-1--1--3-5----------------------------|
 e|-3---x-3-3---x-3----1--1--x-------1--1--x-------1-3----------------------------|

Take, take, take,
Take, take, take,
Take, take, take,
[G] And she s[A#]aid to me, ??I[F] need to go to sleep' and it seemed so[G] mean,
[G] It's almost a[A#]s if she did [F]not appreciate how cool I was [G]being,
[F]She said, ??Good night' and walked away,
And I didn't know what to say.
I just couldn't bel[G]ieve it.
[G] Well, it's just n[A#]ot fair, I want[F] to get a piece of hair and that was all[G] that I needed
[G] Well maybe a[A#] kiss on the cheek, I wouldn't[F] wash it for a week. That was all that I[G] needed
[F]Well she didn't even care,
That even there,
What a horrible f[G]eeling.
benmgs

Important: The song above is NOT stored on the Chordie server. The original song is hosted at www.xguitar.com. Chordie works as a search engine and provides on-the-fly formatting. Chordie does not index songs against artists'/composers' will. To remove this song please click here.

Text color:
Chord color:
Chord grids: 
Font size:    
Page size: 

A# F G
Rate #1 of 4 versions

Login - add to songbook

SHARE PAGE  




You need to log in to post comments