Guitar Tabs, Chords and Lyrics
Major upgrade!! After one year development the new version of Chordie is now online! Please give feedback.


Suzy Lee  The White Stripes

Open E Tuning
[E] [B] [E] [G#] [B] [E]  
/=slide up
\\=slide down
Basicly, you should use a slide for everything except the low power chord
stuff. As you may be able to tell, I didn't include any indications
about
timing, so you will have to listen to the recording. Also, there is a
second guitar. I hope I didn't overcomplicate this nice easy song.
Believe me, I wanted to tab every single note, but thought that would be
of no real use, as the variations are quite minor and simple.
Intro:
Guitar 1 only
 
 E:------------------12-----------10-------------------9--------------
 B:------12--------12--12-----------10--------10\\--------9------------
 G#----12--12------------12\\----10----10----10-------9-----9------9\\--
 E:-/12------12-/12----------/10---------/10------/9----------/9------
 B:-------------------------------------------------------------------
 E:-------------------------------------------------------------------

Both Guitars
 
 E:--------------------
 B:--------------------
 G#--------------------
 E:--0--3--5--3--5--0-- X2
 B:--0--3--5--3--5--0--
 E:--0--3--5--3--5--0--

Verse:
Guitar 1
<-(First time)
 
 E:-0--|----------------------------------
 B:-0--|-/12---12\\--/10-----10\\--/9---9\\--
 G#----|-/12---12\\--/10-----10\\--/9---9\\--
 E:----|-/12---12\\--/10---10--\\--/9---9\\--
 B:--0-|----------------------------------
 E:--0-|----------------------------------

Guitar 2
 
 E:-------------------------------------------------------------------------
 B:-------------------------------------------------------------------------
 G#----------12----------12------------10----------10---------9-------9-----
 E:--------12--12------12--12--------10--10------10--10------9--9----9-9----
 B:------12------12--12------12\\---10------10--10------10\\--9----9--9---9\\--
 E:--0/12----------12-----------/10----------10-----------/9-------9--------

At the end of the first time through
Both the verse, Guitar 1 does this
 
 E:----------------------- E:----12----
 B:----------------------- B:------12--
 G#----------------------- G#-/12------
 E:--0--3--5--3--5--3--0-- X2 E:----------
 B:--0--3--5--3--5--3--0-- B:----------
 E:--0--3--5--3--5--3--0-- E:----------

I know technically it probably isn't, but I'm calling this the Bridge:
Guitar 1
 
 E:-------------------------
 B:-------------------------
 G#-------------------------
 E:--/5------/8------/3-----
 B:--/5-X12--/8-X12--/3-X12-
 E:--/5------/8------/3-----

Guitar 2
 
 E:--0/5-5-5-----5---5----0/8-8-8-----8---8----0/3-3-3-----3---3-\\3--
 B:--0/5-----5---------5--0/8-----8---------8--0/3-----3---------\\3--
 G#--0/5-------5---5------0/8-------8---8------0/3-------3---3---\\3--
 E:------------------------------------------------------------------
 B:------------------------------------------------------------------
 E:------------------------------------------------------------------

Both
 
 E:-----------------------
 B:-----------------------
 G#-----------------------
 E:--0--3--5--3--5--3--0--
 B:--0--3--5--3--5--3--0--
 E:--0--3--5--3--5--3--0--

Fill
Guitar 1
 
 E:--------12----
 B:----------12--
 G#--/12---------
 E:--------------
 B:--------------
 E:--------------

Guitar 2
 
 E:--0----0--
 B:----b3----
 G#----------
 E:----------
 B:----------
 E:----------

Both
 
 E:-----------------------
 B:-----------------------
 G#-----------------------
 E:--0--3--5--3--5--3--0--
 B:--0--3--5--3--5--3--0--
 E:--0--3--5--3--5--3--0--

Fill
Guitar 1
 
 E:------12--------
 B:--/12---12------
 G#--/12-----12----
 E:------------12--
 B:----------------
 E:----------------

Guitar 2
E:--b3-0--
 
 B:--------
 G#--------
 E:--------
 B:--------
 E:--------

Solo:
Guitar 1
 
 E:------12---10/12-12---------/12-0-0----10--10\\--------9------7/9--9\\--
 B:----12--12-10/12-12----10-----------/10--10-------9-----9----7/9--9\\--
 G#-/12----------------/10--10---------/10--------/9---9-----9-----------
 E:----------------------------------------------------------------------
 B:----------------------------------------------------------------------
 E:----------------------------------------------------------------------

Guitar 2
 
 E:-------------------------------------------------------------------------
 B:-------------------------------------------------------------------------
 G#----------12----------12------------10----------10---------9-------9-----
 E:--------12--12------12--12--------10--10------10--10------9--9----9-9----
 B:------12------12--12------12\\---10------10--10------10\\--9----9--9---9\\--
 E:--0/12----------12-----------/10----------10-----------/9-------9--------

Both
 
 E:-----------------------
 B:-----------------------
 G#-----------------------
 E:--0--3--5--3--5--3--0--
 B:--0--3--5--3--5--3--0--
 E:--0--3--5--3--5--3--0--

Guitar 1
 
 E:--0----0-b3-0--
 B:----b3---------
 G#---------------
 E:---------------
 B:---------------
 E:---------------

Both
 
 E:-----------------------
 B:-----------------------
 G#-----------------------
 E:--0--3--5--3--5--3--0--
 B:--0--3--5--3--5--3--0--
 E:--0--3--5--3--5--3--0--

Guitar 1
 
 E:--0------
 B:--0------
 G#---------
 E:---------
 B:----0-0--
 E:----0-0--

End of Song:
Guitar 1
 
 E:----12-\\-

B:-/12---\\-
 
 G#---------
 E:---------
 B:---------
 E:---------

I think that should be about it; all the parts are there, just mix them
into place.

Important: The song above is NOT stored on the Chordie server. The original song is hosted at www.xguitar.com. Chordie works as a search engine and provides on-the-fly formatting. Chordie does not index songs against artists'/composers' will. To remove this song please click here.

Text color:
Chord color:
Chord grids: 
Font size:    
Page size: 

B E G#
Rate #3 of 5 versions

Jango Player

Login - add to songbook

SHARE PAGE  




You need to log in to post comments