Guitar Tabs, Chords and Lyrics
Update 25:10. 13:00. Site is back up running again. Songbooks are recovered. Woring on getting search back up..


Hollow  Matthew Sweet

tr@worldnet.att.net)
HOLLOW by Matthew Sweet
from Blue Sky on Mars (1997)
Start with bass playing G
Guitar progression: G Bb Csus4 C (4 times)
Verse 1:
[G]Capture[Bb] [Csus4] [C]
The spirit of ad[G]versity.[Bb] [Csus4] [C]
Be sure to put the li[G]d on tigh[Bb]t an[Csus4]d watch[C] it carefully
[G] [Bb] [Csus4] [C]  
Verse 2:
Sew shut
The mouth of the river slut
The entrance to a place discussed but hardly there for you
Chorus:
[C]Hollo[Eb]w
An evil bi[C]gger than you could k[Eb]now
Has taken roo[G]t[Bb] [Csus4] [C]
Verse 3:
Rapture
So what do you care
You know if it was up to me I^d take you anywhere
Chorus
Solo
Chorus
Fade out...
CHORDS (in order EADGBE - these are barre):
G = 355433
Bb = 113331
Csus4 = 335563
C = 335553
Eb = 668886
[-----]  
From: mat payne
Hollow
I saw the new tab for Hollow which looks about right I guess, but I
came up with something different that looks more like how Matt played it
at the Pheonix Club up here in Toronto. I'm a self taught player though
so I don't know the names of these chords. here goes..
verse
 
 e--2-----6----6------2---r----------------------------------------
 B--2-----6----6------2---e----------------------------------------
 G------------------------p------------------------------------
 D-------------5------2---e--------------------------------------
 A--2-----5----6------3---a----------------------------------------
 E--3-----6---------------t--------------------------------------

Chorus
 
 e--8-----6-------------------------------------------------------
 B--8-----6-------------------------------------------------------
 G------------------------------------------------------------
 D--------5-----------------------------------------------------
 A--7-----6-------------------------------------------------------
 E--8-----------------------------------------------------------

solo starts something like this,
 
 e-------x---x------------------------------------------------------
 B-------x---x---2^-2^--------------------------------------------
 G-------x---x---------5---3---3h5---5^--3h5p3---------------
 D-------x---x----------------------------------5------------------
 A-------x---x------------------------------------------------------
 E--3----x---x---------------------------------------------


Important: The song above is NOT stored on the Chordie server. The original song is hosted at zenandjuice.com. Chordie works as a search engine and provides on-the-fly formatting. Chordie does not index songs against artists'/composers' will. To remove this song please click here.

Text color:
Chord color:
Chord grids: 
Font size:    
Page size: 

Bb C Csus4 Eb G
Rate #1 of 1 versions

Jango Player

Login - add to songbook

SHARE PAGE  



You need to log in to post comments