Guitar Tabs, Chords and Lyrics
Server problems seems to be fixed. Chordie has been experiencing problems with songs disappearing. These issues now seems to be fixed, but still verifying the fix. If you find anything strange, please email admin@chordie.com.



Notice: Undefined index: PATH_INFO in /var/www/chordiepro/chord.pere on line 785

Don't Fear The Reaper  Blue Oyster Cult



Key of C
|   Am       G        F       G
-------------------------------------
-------------------------------------
-------2-0--------0--------0-------0-
-----2----------0--------0-------0---
---0----------2--------3-------2-----
------------3--------1-------3-------


Let the open 'G' ring out each time

[Am]All [G]   our [F]times [G]have [Am]come. [G]( musi[F]c )[G]
[Am]Here[G]   but [F]now   [G]they're  [Am]gone. [G]( musi[F]c )[G]

[F]Seasons don't [G]fear the reap[Am]er   nor
do the [F]wind,  the [E]sun or the rain.[Am]     We
can [G]be like they[F] are.   [G]Come on ba[Am]by.  Don't
Bucks partial lead:

No Chord ( and no bass ) ------------------------------------------------------------ -------13------13------13------13------13------------------- --10-13---10-13---10-13---10-13---10-13--------------------- ------------------------------------------------------------ ------------------------------------------------------------ ------------------------------------------------------------
------------------------------------------------------------ -------12------12------12------12------12------12----------- --10-12---10-12---10-12---10-12---10-12---10-12------------- ------------------------------------------------------------ ------------------------------------------------------------ ------------------------------------------------------------
------------------------------------------------------------ -------13------13------13------13------13------------------- --10-13---10-13---10-13---10-13---10-13--------------------- ------------------------------------------------------------ ------------------------------------------------------------ ------------------------------------------------------------
------------------------------------------------------------ -------12------12------12------12------12------12----------- --10-12---10-12---10-12---10-12---10-12---10-12------------- ------------------------------------------------------------ ------------------------------------------------------------ ------------------------------------------------------------
Here is where the heavy lead comes in: See Below
Fm ( Second Guitar with Some deep mystical bass ) ------------------------------------------------------------ -------13------13------13------13------13------------------- --10-13---10-13---10-13---10-13---10-13--------------------- ------------------------------------------------------------ ------------------------------------------------------------ ------------------------------------------------------------
------------------------------------------------------------ -------12------12------12------12------12------12----------- --10-12---10-12---10-12---10-12---10-12---10-12------------- ------------------------------------------------------------ ------------------------------------------------------------ ------------------------------------------------------------
------------------------------------------------------------ -------13------13------13------13------13------------------- --10-13---10-13---10-13---10-13---10-13--------------------- ------------------------------------------------------------ ------------------------------------------------------------ ------------------------------------------------------------
------------------------------------------------------------ -------12------12------12------12------12------12----------- --10-12---10-12---10-12---10-12---10-12---10-12------------- ------------------------------------------------------------ ------------------------------------------------------------ ------------------------------------------------------------
I don't have the lead but listen to the music and you hear Buck Ripping up the 12th thru 19th fret heavily. Bends and slides etc.
--17-17-17-17-17-17-17-17b-15-17-17-17---------------------- ---------------------------------------15------------------- ------------------------------------------------------------ ------------------------------------------------------------ ------------------------------------------------------------ ------------------------------------------------------------


Important: The song above is NOT stored on the Chordie server. The original song is hosted at getsome.org. Chordie works as a search engine and provides on-the-fly formatting. Chordie does not index songs against artists'/composers' will. To remove this song please click here.

Text color:
Chord color:
Chord grids: 
Font size:    
Page size: 

Am E F G

Login - add to songbook

SHARE PAGE  



You need to log in to post comments