Guitar Tabs, Chords and Lyrics
Update 25:10. 13:00. Site is back up running again. Songbooks are recovered. Woring on getting search back up..



Notice: Undefined index: PATH_INFO in /var/www/chordiepro/chord.pere on line 787

FOREVER YOUNG  Alphaville



----------------------------

L[C]et's start in [G]style, let's dance for
a[Am] while. Heaven can [F]wait we're only watching
s[G]kies. Hoping for the[Am] best, but expecting
th[F]e worst. Are you gonna drop the bomb or not?[Am] [G]
Let us stay young or let us live forever
We don't have the power, but we never say never
Sitting in a sandpit, life is a short trip
The music's for the sad man
Can you imagine when this race is won
Turn out all the faces into the sun
Praising our leaders, we're getting in tune
The music's played by the madman
F[C]orever y[G]oung. I want to [Am]be
F[F]orever young
D[G]o you really want to l[Am]ive forever?
F[F]orever, [G]you'll never
(2) || C ||
young
Some are like water, some are like the heat
Some are a melody and some are the beat
Sooner or later they all will be gone
Why don't they stay young?
It's so hard to get old without a cause
I don't want to perish like a fading rose
Years like diamonds in the sun
And diamonds are forever
So many advantages given up today
So many songs we forgot to play
So many dreams swinging out of the blue
Oh let it come true
Solo (arranged for guitar):
    [C]               [G]            [Am]                [F]                                                   
E |--------------------------|-------------------------|
B |-8------8-----------------|---5-----5-----5---------|
G |---9------9----7----4---7-|-----5-----5-------5-----|
D |----(10)----10----5---5---|-7-----7-----7-------7---|
A |--------------------------|-----------------8-----8-|
E |--------------------------|-------------------------|

    [G]                             [Dm]             [F]        [Am]                                            
E |---7--10----7--10----7-10-7--------------|---------------------||
B |-8-------8--------8---------8------------|-------------5---5---||
G |-----------------------------------------|---5-------5---5---5-||
D |--------------------------------7------7-|-----7---7-----------||
A |------------------------------5---8--5---|-8-----8-------------||
E |-----------------------------------------|---------------------||

*******************************************************************************
Keep rockin !
Max ( Max_Guitarplayer@hotmail.com )
*******************************************************************************

Important: The song above is NOT stored on the Chordie server. The original song is hosted at www.guitaretab.com. Chordie works as a search engine and provides on-the-fly formatting. Chordie does not index songs against artists'/composers' will. To remove this song please click here.

Text color:
Chord color:
Chord grids: 
Font size:    
Page size: 

Am C Dm F G

Jango Player

Login - add to songbook

SHARE PAGE  



You need to log in to post comments