Guitar Tabs, Chords and Lyrics
Update 25:10. 13:00. Site is back up running again. Songbooks are recovered. Woring on getting search back up..



Notice: Undefined index: PATH_INFO in /var/www/chordiepro/chord.pere on line 787

Yoshimi Battles The Pink Robots  Flaming Lips



    [C/G]                 [Em]                  [Dm]              [F]         [G]              
e|--0----------------0-----------------1-------------1--------3-----|

B|--1----------------0-----------------3-------------1--------3-----|
G|--0----------------0-----------------2-------------2--------4-----|
D|--2----------------2--------------0--0-------------3--------5-----|
A|--3----------------2-------------------------------3--------5-----|
E|--3----------------0-------------------------------1--------3-----|
VERSE:

///// // ///// /////x//x////// /////x//x///// /////x//x/////
    [C/G]               [Em]                [F]               [G]                          
e|--0--------------0---------------1--------------3-----------------|

B|--1--------------0---------------1--------------3-----------------|
G|--0--------------0---------------2--------------4-----------------|
D|--2--------------2---------------3--------------5-----------------|
A|--3--------------2---------------3--------------5-----------------|
E|--3--------------0---------------1--------------3-----------------|

///// // ///// /////x//x////// /////x//x///// /////x//x/////
    [C/G]               [Em]                [F]               [G]                          
e|--0--------------0---------------1--------------3-----------------|

B|--1--------------0---------------1--------------3-----------------|
G|--0--------------0---------------2--------------4-----------------|
D|--2--------------2---------------3--------------5-----------------|
A|--3--------------2---------------3--------------5-----------------|
E|--3--------------0---------------1--------------3-----------------|

/////x//x///// /////x//x/////
     [Fmaj7]               [G]                                                        
e|--0--------------3------------|

B|--1--------------3------------|
G|--2--------------4------------|
D|--3--------------5------------|
A|--3--------------5------------|
E|--1--------------3------------|

/ /// / /// /////x//x///// /////x//x///// /////x//x/////
    [C]        [B/C]        [F]                [Fmaj7]              [G]                          
e|-----0-------0----1---------------0-------------3----------------|

B|-----1-------1----1---------------1-------------3----------------|
G|--0--0----0--0----2---------------2-------------4----------------|
D|--2--2----2--2----3---------------3-------------5----------------|
A|--3--3----2--2----3---------------3-------------5----------------|
E|------------------1---------------1-------------3----------------|

SOLO: while strumming chorus

    [C]             [Em]              [Dm]            [Fmaj7]            [G]                     
e|--0--3---------0--3----------5--5--------0--0--------3-----------|

B|--1-----1------0-----0-------6-----------1-----------3--3--------|
G|--0------------0-------------7-----7-----2-----------4-----------|
D|--2------------2-------------7-----------3-----------5-----------|
A|--3------------2-------------5-----------3-----------5-----------|
E|---------------0------------(5)----------1-----------3-----------|

CHRONOLOGY:


VERSE I:
[C/G] The name is Y[Em]oshimi,[F] she�s got a black belt in[G] Karate
[C/G] Workin� for t[Em]he city[F], she�s got to discipline [G]her body
Cause she[Fmaj7] knows that, it�s de[G]mandin�, to [C]defeat thos[B/C]e evil m[F]achines
[Fmaj7]   I know she can [G]beat them


CHORUS:
Oh [C/G]Yoshimi, they don�t [Em]believe me, but [Dm]you won�t let those [F]robots [G]defeat me
[C/G]Yoshimi, they don�t [Em]believe me, but [Dm]you won�t let those [F]robots [G]eat me


VERSE II:
[C/G] Those evil natured [Em]robots,[F] they�re programmed to[G] destroy us
[C/G] She�s gotta be strong to f[Em]ight them,[F] so she�s taken lots of[G] vitamins
Cause she[Fmaj7] knows that, it�d be[G] tragic, if those [C]evil[B/C] robots [F]win, yeah
[Fmaj7]   I know she can [G]beat them


CHORUS:
Oh [C/G]Yoshimi, they don�t [Em]believe me, but [Dm]you won�t let those [F]robots [G]defeat me
[C/G]Yoshimi, they don�t [Em]believe me, but [Dm]you won�t let those [F]robots [G]eat me


SOLO: C/G, Em, Dm, Fmaj7, G C/G, Em, Dm, Fmaj7, G


CHORUS:
Oh [C/G]Yoshimi, they don�t [Em]believe me, but [Dm]you won�t let those [F]robots [G]defeat me
[C/G]Yoshimi, they don�t [Em]believe me, but [Dm]you won�t let those [F]robots [G]eat me


END: on C/G

Important: The song above is NOT stored on the Chordie server. The original song is hosted at www.guitaretab.com. Chordie works as a search engine and provides on-the-fly formatting. Chordie does not index songs against artists'/composers' will. To remove this song please click here.

Text color:
Chord color:
Chord grids: 
Font size:    
Page size: 

B/C C C/G Dm Em F Fmaj7 G

Login - add to songbook

SHARE PAGE  




You need to log in to post comments