Guitar Tabs, Chords and Lyrics
Major upgrade!! After one year development the new version of Chordie is now online! Please give feedback.


WHITE BIRD  Its A Beautiful Day



[F]        [133211]       [G]        [355433]       [Gm]        [355333]       [G#]Dm      [466544]x57765
Key:
(n) = grace note
Intro:
C(viii)
_____________________________________________
| 1, 2, 3, and 4 |
E|-------------8--------|------------------------|
B|-----(10)p8----8------|-----------8------------|
G|-----------------9----|--(10)p9-----9----------|
D|--10---------------10-|-------------------8-12-|
A|----------------------|-----------------10-----|
E|----------------------|------------------------|

1 . 2 . 3 . 4 . 1 . 2 . 3 . 4 .
C(viii)
______________________________________________
| 5
E|-------------8--------|------------------------|
B|-----(10)p8----8------|-----------8------------|
G|-----------------9----|--(10)p9-----9----------|
D|--10---------------10-|------------------------|
A|----------------------|------------------------|
E|----------------------|------------------------|

1 . 2 . 3 . 4 . 1 . 2 . 3 . 4 .
C(viii) Bb(vi)
White bird in a golden cage
C(viii) Bb(vi)
On a winter's day, in the rain
C(viii) Bb(vi)
White bird in a golden cage
Bb(vi)-slide-C(viii)   Bb(vi)-slide-C(viii)

Alone.
Bb(vi)-slide-C(viii)   Bb(vi)-slide-C(viii)

The leaves blow 'cross the long black road
To the darkened sky, in its rage
But the white bird just sits in her cage
Unknown.
[F]White bird must [G#]fly or she will [C]die
Instrumental section:
C(viii) Bb(vi)
C(viii) Bb(vi)
C(viii) Bb(vi)
Bb(vi)-slide-C(viii)   Bb(vi)-slide-C(viii)
Bb(vi)-slide-C(viii)   Bb(vi)-slide-C(viii)

The white bird dreams of the aspen tree
With her dying leaves turning gold
But the white bird just sits in her cage
Growing old
[F]White bird must [G#]fly or she will [C]die
F G# C Bb (rest)
White bird must fly or she will die
The [Cm]sunsets come, the [Gm]sunsets go
The [G#]clouds float by, the [G]earth turns slow
And a [Cm]young bird's eyes do always [G#]glow
C(vii) Bb(vi)
And she must fly
C(vii) Bb(vi)
And she must fly
C(vii) Bb(vi)
And she must fly
Instrumental section:
Cm Bb (8 times)
Cm Dm G G# (4 times)
C(viii) Bb(vi) (16 times)
C(viii)
White bird in a golden cage
On a winter's day, in the rain
White bird in a golden cage
Alone.
White bird must fly or she will die
White bird must fly or she will die
White bird must fly or she will die
White bird must fly.

Important: The song above is NOT stored on the Chordie server. The original song is hosted at www.guitaretab.com. Chordie works as a search engine and provides on-the-fly formatting. Chordie does not index songs against artists'/composers' will. To remove this song please click here.

Text color:
Chord color:
Chord grids: 
Font size:    
Page size: 

C Cm F G G# Gm

Jango Player

Login - add to songbook

SHARE PAGE  




You need to log in to post comments