Guitar Tabs, Chords and Lyrics
Major upgrade!! After one year development the new version of Chordie is now online! Please give feedback.


Two  Ryan Adams



--------------------------------------

    [A]         [D]         [E]       [F#m7]                                                       
e -----    --2--    --0--    --2--
B --0--    --3--    --0--    --2--
G --2--    --2--    --1--    --2--
D --2--    --0--    --2--    --2--
A --0--    -----    --2--    --4--
E -----    -----    --0--    --2--

Guitar 2 (capo 2):

    [G]         [C]     [Dadd4/add2]              [Em7]                                                    
e --3--    --3--    --0--      --0--
B --0--    --1--    --3--      --3--
G --0--    --0--    --0--      --0--
D --0--    --2--    --4--      --2--
A --2--    --3--    --5--      --2--
E --3--    -----    -----      --0--


Guitar 3:
Riff 1:
      [A]          [D]          [A]          [D]          [A]          [D]          [A]          [D]        
e||---------------------------------------------------------------------------||
B||--------------------------10---------------9-12-10--/12-------/14----------||
G||---9------------------/9--------/11----------------------------------------||
D||---------------------------------------------------------------------------||
A||---------------------------------------------------------------------------||
E||---------------------------------------------------------------------------||


Riff 2:
     [A]           [D]          [A]          [D]          [A]          [D]          [A]                  
e||---------------------------------------------------------------------------||
B||--10-9-10----------------10----------------9-12-10--/12-------/14----------||
G||------------/11--------9--------/11----------------------------------------||
D||---------------------------------------------------------------------------||
A||---------------------------------------------------------------------------||
E||---------------------------------------------------------------------------||



Intro (Guitar 1 + Guitar 2): A D A D A D A D
(Guitar 3, Riff 1)

(Guitar 1)
   If [A]you'll take me [D]back
   [A]Back to your [D]place
   I'll [A]try not to [D]bother you, I [E]promise
   'Cause it's [A]cold in here [D]
   And I [A]wish it was [D]hot
   The [A]sink's broke, it's [D]leaking from the [E]faucet


(Guitar 1 + Guitar 2)
   And I'm [F#m7]fractured from the [D]fall
   And I [A]wanna go home   [E]
   [F#m7]It takes two when[D] it used to take one  [A]
   [F#m7]It takes two when[D] it used to take only [A]one


(Guitar 1)
   Well, my [A]money's no good [D]
   When I'm [A]up to no good [D]
   No [A]good ever [D]comes from it, [E]honest
   I got a [A]really good heart  [D]
   I just [A]can't catch a break  [D]
   If I could,[A] I'd treat you like[D] you wanted me to, I [E]promise


(Guitar 1 + Guitar 2)
   But I'm [F#m7]fractured from the [D]fall
   And I [A]wanna go home   [E]
   And I'm [F#m7]fractured from the [D]fall
   And I [A]wanna go home   [E]
   [F#m7]It takes two when[D] it used to take one  [A]
   [F#m7]It takes two when[D] it used to take one  [A]
   [F#m7]It takes two when[D] it used to take one  [A]
   [F#m7]It takes two when[D] it used to take only [A]one
Outro (Guitar 1 + Guitar 2): A D A D A D A ...
(Guitar 3, Riff 2)
www.ryan-adams.org

Important: The song above is NOT stored on the Chordie server. The original song is hosted at www.guitaretab.com. Chordie works as a search engine and provides on-the-fly formatting. Chordie does not index songs against artists'/composers' will. To remove this song please click here.

Text color:
Chord color:
Chord grids: 
Font size:    
Page size: 

A C D Dadd4/add2 E Em7 F#m7 G

Jango Player

Login - add to songbook

SHARE PAGE  




You need to log in to post comments