Guitar Tabs, Chords and Lyrics
Major upgrade!! After one year development the new version of Chordie is now online! Please give feedback.


Daisy Acoustic  Maine



e--3-3-3-3-3-3-2h3-----|

b--3-3-3-3-3-3----3----|
g----------------------|
d----------------------|
a----------------------|
e----------------------|
[G]I picked you up and lifted you[Cadd9]r wilted frame into the sun.
[Em]I was [D]taken back[Cadd9], yeah I was taken back,
[G]And by the time I caught my[Cadd9] breath,
You had blossomed into [Em]something [D]that I did not [Cadd9]expect.
Verse Lead Part:
e---------------------|
b-------------3h5p3---|
g-2-h4--2--h4---------|
d---------------------|
a---------------------|
e---------------------|


PreChorus
[D]And if it takes all[Cadd9] night,
[D]I swear I'll[Cadd9] wait, For you, Forever.

Chorus
[G]Sun[D]light, sun[Cadd9]shine, All for you my daisy.
[Em]We're getting [D]this before you [Cadd9]leave, All for you my daisy.

Lead Part After Chorus
e-3h2p3---0---------|
b------3----3-------|
g-------------0-----|
d-------------------|
a-------------------|
e-------------------|


Verse
[G]You're a wreck and you[Cadd9] know,
You've got me wrapped around your [Em]finger,
[D]Like a boy tangled in vines,
[Cadd9]But i've figured you out.

Lead Verse 2 Part(related to full version):
*played quick and few
e---0------|
b---3------|
g---4------|
d---5------|
a---5------|
e----------|


PreChorus
[D]And now we're[Cadd9] here, We're so confused,
[D]And I wish that there was[Cadd9] some way that I could tell you.

Chorus

Bridge
* just repeat over and over
e--3-3-3-3----|
b--3-3-3-3----|
g-------------|
d-------------|
a-------------|
e-------------|


Lead Part During Bridge:
e--3-2-----------|
b------3---0h3p0-|
g----------------|
d----------------|
a----------------|

e---
All for, all for, all for you my daisy

Chorus

Important: The song above is NOT stored on the Chordie server. The original song is hosted at www.guitaretab.com. Chordie works as a search engine and provides on-the-fly formatting. Chordie does not index songs against artists'/composers' will. To remove this song please click here.

Text color:
Chord color:
Chord grids: 
Font size:    
Page size: 

Cadd9 D Em G

Jango Player

Login - add to songbook

SHARE PAGE  




You need to log in to post comments