Guitar Tabs, Chords and Lyrics
Update 25:10. 13:00. Site is back up running again. Songbooks are recovered. Woring on getting search back up..



Notice: Undefined index: PATH_INFO in /var/www/chordiepro/chord.pere on line 787

The Needle & The Damage Done  Neil Young



        [D/Dsus2]                        [Dsus2/C]                                                 
--------2--0-----------|-----------0-----------|
--------3--------3-----|--------3--------3-----|
-----2--------2-----2--|-----2--------2-----2--|
--0--------------------|-----------------------|
-----------------------|--3--------------------|
-----------------------|-----------------------|

       [Dus2/B]                         [Dsus2/b]                                                 
-----------0-----------|-----------0-----------|
--------3--------3-----|--------3--------3-----|
-----0--------0-----0--|-----0--------0-----0--|
-----------------------|-----------------------|
--2--------------------|--1--------------------|
-----------------------|-----------------------|

           [C]                        [C]                                              
-----0-----0-----0-----|-----0-----0-----0-----|
-----1-----1-----1-----|-----1-----1-----1-----|
--------------0--------|0h2h0---3-----2--------|
-------0h2-------------|-----------------------|
--3--------------------|-----------------------|
-----------------------|-----------------------|

           [C]                    [E/A]                                                  
-----0-----0----|------0-----0-----0-----0-----|
-----1-----1----|------0-----0-----0-----0-----|
--0-------------|--0h2-------------------------|
--------3-------|---------2--------------------|
----------------|---------------2--------------|
----------------|---------------------0--------|

           [E]                        [E]                                              
-----0-----0-----0----0--|
-----0-----0-----0----0--|
-0h1---------------------|
--------2----------------|
--------------2----------|
-------------------0-----|

I caught you knocking at my Cellar door
--------2--0-----------|-----------0-----------|
--------3--------3-----|--------3--------3-----|
-----2--------2-----2--|-----2--------2-----2--|
--0--------------------|-----------------------|
-----------------------|--3--------------------|
-----------------------|-----------------------|

I love you baby can I Have some more?
-----------0-----------|-----------0-----------|
--------3--------3-----|--------3--------3-----|
-----0--------0-----0--|-----0--------0-----0--|
-----------------------|-----------------------|
--2--------------------|--1--------------------|
-----------------------|-----------------------|

Oh, oh, the damage
--------------3-----------|--------------1-----------|
--------1-----------1-----|--------1-----------1-----|
-----0-----0-----0-----0--|-----2-----2-----2-----2--|
--------------------------|--3-----------------------|
--3-----------------------|--------------------------|
--------------------------|--------------------------|

done
--------------0-----------|--------------|
--------0-----------0-----|--------------|
-----1-----1-----1-----1--|-----1--2--4--|
--2-----------------------|--------------|
--------------------------|--------------|
--------------------------|--0-----------|

I caught you knocking at my cellar door
I love you baby can I have some more?
Oh oh the damage done.
I hit the city and I lost my band
I watched the needle take another man
Gone gone, the damage done.
I sing the song because I love the man
I know that some of you don't understand
Milk blood to keep from running out
I seen the needle and the damage done
A little part of it in everyone
But every junkie's like a setting sun
I seen the needle and the damage done
A little part of it in everyone
Every junkie's like a setting sun
--------2--0-----------|-----------0-----------|
--------3--------3-----|--------3--------3-----|
-----2--------2-----2--|-----2--------2-----2--|
--0--------------------|-----------------------|
-----------------------|--3--------------------|
-----------------------|-----------------------|
-----------0-----------|-----------0--|
--------3--------3-----|--------3-----|
-----0--------0-----0--|-----0--------|
-----------------------|--------------|
--2--------------------|--1-----------|
-----------------------|--------------|

Important: The song above is NOT stored on the Chordie server. The original song is hosted at www.guitaretab.com. Chordie works as a search engine and provides on-the-fly formatting. Chordie does not index songs against artists'/composers' will. To remove this song please click here.

Text color:
Chord color:
Chord grids: 
Font size:    
Page size: 

C E

Login - add to songbook

SHARE PAGE  



You need to log in to post comments