Guitar Tabs, Chords and Lyrics
Major upgrade!! After one year development the new version of Chordie is now online! Please give feedback.


The Day We Caught the Train  Ocean Colour Scene


[Em]I never saw it as the sta[D]rt its more a [G]change of heart
[F]Rapping on the windows, whistling down the chimney po[E]t
[G]Blowing off the dust in the room
Where I forgot [D]I laid m[C]y plans in [B]solid rock
[Em]Stepping through the door
Like a troubadour whiling just an hour aw[A]ay,
[Em]Looking at the trees on the roadside felling its a hol[A]iday
[D]You and I [AAnd Bm]wind up in our favourite [A/CG]Roll a number [G]write another song
A *
Like jimmy heard the day he caught the train.
[Em]He sliped another rum and co[D]ke and told a dirty jok[G]e
[F]Walking like groucho sucking on a number [E]10
[G]Rolling on the floor with the cigarette burns walked i[D]n
I'll [C]miss the crush and I'm [B]home again
[Em]Stepping through the door
With the night in store whiling just an [A]hour away,
[Em]Step into the sky in the starbright feeling its a [A]brighter day.
[A]You and I should ride the tracks
And find ourselves just wading through tomorro[D]w
[A]And you and I when we're coming down
We're only getting back
And you know I feel no sorr[D]ow.[A] [G] [Em]
[D]Oh Oh[A] la la
[G]Oh Oh[Em] la la
[D]When you find that [A]things are getting wild
[G]Don't you need days like [Em]these............
CHORDS
Em =[EADGBE]022000
D =x5777x
G =355633
F =133211
B =x2444x
Wierd ABm =x244322
Wierd A/CRIFFY BITS I'VE PICKED UP
Riff 1
Never saw it as a start It's more a change of heart
--0-----------------x---------------3-------------
--0-----------------7---------------3-------------
--0-----------------7---------------4-------------
--2-----------------7---------------5-------------
--2-----------------5---------------5-------------
--0-----------------x---------------3-------------

Rapping on the windows, whistling down the chimney pot
--------------1---------------------------1---------
--------------1---------------------------1---------
--------------2---------------------------2---------
--------------3---------------------------3---------
-(Palm mute)--3-------(Palm Mute)---------3---------
-1------1-----1--------1--------1---------1------0--
-------0------------------
-------0------------------
-------1-------------0h1--
-------2----------0h2-----
-------2------0h2---------
-0-----0----x-------------

Blowing off the dust in the room Where I forgot
---------------3-------------------------3--
---------------3-------------------------3--
---------------4-------------------------4--
---------------5-------------------------5--
-(palm mute)---5-----etc-----------------5--
-3-----3-------3----3----------3---------3--

I laid my plans in solid rock
------------x------------x--------------x--
------------7------------5--------------4--
------------7------------5--------------4--
---etc------7--etc-------5--------------4--
-5----5-----5--3----3----3----2----2----2--
-------------------------------------------

And theres lots of bits like this
---------------- -----------------
---------------- -----------------
----------1h2--- -------------0h1-
------1h3------- ---------0h2-----
--1h3----------- -----0h2---------
---------------- -----------------

Tabbed by Chris Stevenson & Robert Chapman
P.S. Anybody that wants to discuss cool music,new bands,tabs etc
can Email me (Chris) at (freebeer@hotmail.com)

Important: The song above is NOT stored on the Chordie server. The original song is hosted at www.guitartabs.cc. Chordie works as a search engine and provides on-the-fly formatting. Chordie does not index songs against artists'/composers' will. To remove this song please click here.

Text color:
Chord color:
Chord grids: 
Font size:    
Page size: 

A B C D E Em F G

Login - add to songbook

SHARE PAGE  




You need to log in to post comments