Guitar Tabs, Chords and Lyrics
Server problems seems to be fixed. Chordie has been experiencing problems with songs disappearing. These issues now seems to be fixed, but still verifying the fix. If you find anything strange, please email admin@chordie.com.



Notice: Undefined index: PATH_INFO in /var/www/chordiepro/chord.pere on line 785

These Are the Days  Van Morrison

B-------8------|------12-|-12-10-10-10h12-10-|-12p10-10/8-8-8---|
G-7------------|12-11-12-|-------------------|------------------|
D--------------|---------|-------------------|------------------|
A--------------|---------|-------------------|------------------|
e--------------|---------|-------------------|------------------|

#
E---------------------|-------------|
B-----3/5-2-----------|-------------|
G-0-4-------2/4-2-0-2-|-2h4-2-2-0-0-|
D---------------------|-------------|
A---------------------|-------------|
E---------------------|-------------|

#
E-7-7-7---7-10-|12-10----|-------------------|------------------|
B-------8------|------12-|-12-10-10-10h12-10-|-12p10-10/8-8-8---|
G-7------------|12-11-12-|-------------------|------------------|
D--------------|---------|-------------------|------------------|
A--------------|---------|-------------------|------------------|
e--------------|---------|-------------------|------------------|

[G]These are the days of endless summ[C]er[G]
[D]These are the days the time is no[G]w
[G]There is no past, thereís only fut[C]ur[G]e
[D]Thereís only here, thereís only n[G]ow

[G]Oh your smiling face, your gracious presen[C]ce[G]
[D]The fires of spring are kindling brig[G]ht
[G]Oh the radiant heart and the song of glo[C]ry[G]
[D]Crying freedom in the nigh[G]t

CHORUS
[C]These are the days by the sparkling riv[G]er
[D]His timely grace and our treasured fi[G]nd
[C]This is the love of the one mag[G]ician
[D]Turned the water into the [G]wine

[G]These are the days of the endless dancing [C]an[G]d the
[D]Long walks on the summer night[G]s
[G]These are the days of the true roma[C]nc[G]ing
[D]When Iím holding you oh so t[G]ight

CHORUS
[C]These are the days by the sparkling riv[G]er
[D]His timely grace and our treasured fi[G]nd
[C]This is the love of the one mag[G]ician
[D]Turned the water into the [G]wine

[G]These are the days now we must s[C]av[G]our
[D]And we must enjoy as we [G]can
[G]These are the days that will last fo[C]re[G]ver
[D]Youíve got to hold them in your h[G]eart

E-7-7-7---7-10-|12-10----|-------------------|------------------|
B-------8------|------12-|-12-10-10-10h12-10-|-12p10-10/8-8-8---|
G-7------------|12-11-12-|-------------------|------------------|
D--------------|---------|-------------------|------------------|
A--------------|---------|-------------------|------------------|
e--------------|---------|-------------------|------------------|
E---------------------|-------------|
B-----3/5-2-----------|-------------|
G-0-4-------2/4-2-0-2-|-2h4-2-2-0-0-|
D---------------------|-------------|
A---------------------|-------------|
E---------------------|-------------|
E-7-7-7---7-10-|12-10----|-------------------|------------------|
B-------8------|------12-|-12-10-10-10h12-10-|-12p10-10/8-8-8---|
G-7------------|12-11-12-|-------------------|------------------|
D--------------|---------|-------------------|------------------|
A--------------|---------|-------------------|------------------|
e--------------|---------|-------------------|------------------|


CHORUS
[C]These are the days by the sparkling riv[G]er
[D]His timely grace and our treasured fi[G]nd
[C]This is the love of the one mag[G]ician
[D]Turned the water into the [G]wine

NB: The intro riff is played under the last chorus at the end

If anyone has the complete tab and/or chords for Tupelo Honey, can they please
post it or e-mail it to me.

Corrections, praise andor abuse welcome at
fender137@yahoo.com.au

Important: The song above is NOT stored on the Chordie server. The original song is hosted at www.guitartabs.cc. Chordie works as a search engine and provides on-the-fly formatting. Chordie does not index songs against artists'/composers' will. To remove this song please click here.

Text color:
Chord color:
Chord grids: 
Font size:    
Page size: 

C D G

Login - add to songbook

SHARE PAGE  



You need to log in to post comments