Guitar Tabs, Chords and Lyrics
Update 25:10. 13:00. Site is back up running again. Songbooks are recovered. Woring on getting search back up..



Notice: Undefined index: PATH_INFO in /var/www/chordiepro/chord.pere on line 787

Doctor Doctor  Ufo



e-------------------------------5-8p5-8/10-8h10p86-8---65/65--------------------

b----5-6---8b10-10r8-6p5-5h6---6--------------------------------8-5h6-8p5-8p5-6----
g--7-----7--------------------7----------------------------------------------------
d----------------------------------------------------------------------------------
a----------------------------------------------------------------------------------
e----------------------------------------------------------------------------------
e----------------10-12-13-10-------------------------------------------------------
b----10-13-------------------10-13-13b15r13-13b15----------------------------------
g----------12b14------------------------------------5h6-8p5-8p5-6------------------
d-12-------------------------------------------------------------------------------
a----------------------------------------------------------------------------------
e----------------------------------------------------------------------------------
e-----------10-12-12/1312-10-12-10----13b15-15r13-10------------------------------
b---------10------------------------10----------------13---------------------------
g-------10-----------------------------------------------12b14r12-10---------------
d----12--------------------------------------------------------------12------------
a-12-------------------------------------------------------------------------------
e----------------------------------------------------------------------------------
[F]     [G]    [A]                                                                                 
e-------------------------------------------------8b10-10r8----------------1---1-8-
b---------1-----------------------5b6-6r5-3-1-1/6-----------5b6-6r5-3-1------------
g---0-2-3---2-3-2--0-2-3-2-4-6----5b6-6r5-3-2---------------5b6-6r5-3-2-3b4-4b5----
d-3---------------3----------------------------------------------------------------
a----------------------------------------------------------------------------------
e----------------------------------------------------------------------------------

Doctor Doctor


[Dm]Doctor Doctor [Bb]please[F], Oh the [C]mess I'm in
[Dm]Doctor Doctor [Bb]please[F], Oh the [A]mess I'm in
[Dm]She walked up [Bb]to me,[F] and really [C]stole my heart
[Dm]and then she [Bb]started,[F] to take my [G]body [A]apart
(Chorus)
[Dm]Livin' [Bb]Lovin' [C]I'm on the [F]run
[G]Far [A]away from [Dm]you
[Dm]Livin' [Bb]Lovin' [C]I'm on the [F]run
[G]So far [A]away from [Dm]you


Doctor Doctor please, Oh I'm goin' fast
Doctor Doctor please, Oh I'm goin' fast
It's only just a moment, she's turning paranoid
That's not a situation for a n-nervous boy

Chorus progression without any vocals

Doctor Doctor please, Oh the mess I'm in
Doctor Doctor please, Oh the mess I'm in
But you look so angry as I crawl across your floor
She's got the strength and I can't take any more

(Chorus)


Important: The song above is NOT stored on the Chordie server. The original song is hosted at www.guitartabs.cc. Chordie works as a search engine and provides on-the-fly formatting. Chordie does not index songs against artists'/composers' will. To remove this song please click here.

Text color:
Chord color:
Chord grids: 
Font size:    
Page size: 

A Bb C Dm F G

Jango Player

Login - add to songbook

SHARE PAGE  



You need to log in to post comments