Guitar Tabs, Chords and Lyrics
Update 25:10. 13:00. Site is back up running again. Songbooks are recovered. Woring on getting search back up..



Notice: Undefined index: PATH_INFO in /var/www/chordiepro/chord.pere on line 787

Losing My Religion  REM

----------10-
-------------
-------------
-------------
-------------

##
|-0-----------0---------------0-|-------------0-------0---0-----|
|-1-----------1---------------1-|-------------1-------1---1-----|
|-2-----------2---------------2-|-------------2-------2---2-----|
|-2-----------------------------|-------------------------------|
|-0-----------------------------|-------------------------------|
|-------------------------------|-------------------------------|

[F] [F] [F] [Fsus2] [F] [F] [F] [G] [G] [Am]
|-1-----------1---1---1-------1-|-----1-------1---3-------3---0-|
|-1-----------1---1---1-------1-|-----1-------1---3-------3---1-|
|-2-----------2---2---0-------2-|-----2-------2---0-------0---2-|
|-3-----------3---3---3-------3-|-----3-------3---0-------0---2-|
|-------------------------------|-----------------2-------2---0-|
|-------------------------------|-----------------3-------3-----|


  [Am]        [Am]        [Am]    [Am]        [G]                                                     
|-0-------0-------0---0-------3-|
|-2-------2-------2---2-------3-|
|-2-------2-------2---2-------0-|
|-1-------1-------1---1-------0-|
|-0-------0-------0---0-------2-|
|-----------------------------3-|


Oh life [Am]   is bigger, [Em]   it's bigger than you.
And you are [Am]not me, the lengths that I will [Em]go to.
The distance in your eyes. [Am]
Em Em(II) Ebm D G
Oh no, I've said too much, I've said it all.
That's me in the co[Am]rner,    That's me in the s[Em]pot light,
Losing my reli[Am]gion.    Trying to k[Em]eep up with you.
And I [Am]don't know if I can do it.
Em Em(II) Ebm D G
Oh no, I've said too much, I haven't said enough.
I thought that I heard you laughing. [F]  [Fsus2]
F G Am Am(II)
I thought that I heard you sing.
I [F]think I tho[Fsus2]ught I [F]saw [G]you [Am]try.
[G]  Every wh[Am]isper,
Every waking [Em]hour, I'm choosing my [Am]confessions.
Trying to [Em]keep an eye on you.
Like a [Am]hurt lost and blinded fool, fool.
[Em]   Oh no, I've said too [D]much.    I said e[G]nough.
Consider t[Am]his,    consider this h[Em]int of the century.
Consider [Am]this,    the slip, that brou[Em]ght me to my knees pale.
[Am]What if all these fantasies come    f[Em]laming aground.
Em(II) D G
Now I've said too much.
I thought that I heard you lau[F]gh[Fsus2]ing.
F G Am Am(II)
I thought that I heard you sing.
I [F]think I tho[Fsus2]ught I [F]saw [G]you [Am]try. [G]



-----12--12--12--10--10--10--10--10--8--8--8--5--5--5--5--5-----------------
----------------------------------------------------------------------------
----------------------------------------------------------------------------
----------------------------------------------------------------------------
----------------------------------------------------------------------------
----------------------------------------------------------------------------


[F]That was just a dream.
[Am]  That was just a dr[G]eam.   That's me in t[Am]he corner.
That's me in the [Em]spot light, losing my re[Am]ligion.
Trying to [Em]keep up with you.  And I [Am]don't know if I can do it.
Em Em(II) Ebm D
Oh no, I've said too much.
I haven't said en[G]ough.
I thought that I heard you lau[F]gh[Fsus2]ing.
F G Am Am(II)
I thought that I heard you sing.
F Fsus2 F G Am(II)
I think I thought I saw you try.
F Fsus2 F Am Am(II)
But that was just a dream, try, cry, why try.
[F]That was [Fsus2]just a [F]dream, [G]  just a [Am]dream, just a [G]dream, dream.



  [Am]v        v
|-12-12-12-12-12-12-12-12-|-12-10-------10-------------|
|-------------------------|-------13-10----13-10-13-10-|
|-------------------------|----------------------------|
|-------------------------|----------------------------|
|-------------------------|----------------------------|
|-------------------------|----------------------------|

(Play the first measure 7 times)


Important: The song above is NOT stored on the Chordie server. The original song is hosted at www.pjandphil.utvinternet.com. Chordie works as a search engine and provides on-the-fly formatting. Chordie does not index songs against artists'/composers' will. To remove this song please click here.

Text color:
Chord color:
Chord grids: 
Font size:    
Page size: 

Am D Em F Fsus2 G

Login - add to songbook

SHARE PAGE  




You need to log in to post comments