Guitar Tabs, Chords and Lyrics
Server problems seems to be fixed. Chordie has been experiencing problems with songs disappearing. These issues now seems to be fixed, but still verifying the fix. If you find anything strange, please email admin@chordie.com.



Notice: Undefined index: PATH_INFO in /var/www/chordiepro/chord.pere on line 785

I Wouldnt Believe Your Radio  Stereophonics



e  ------------------------------------------------------------   

B -----------------------------------------------------------
G ----------------------------------2---0-------------------
D ---------------------------0---2-----------4---4^---0---
A ----------4---0---0---4----------------------------------
E -----------------------------------------------------------
[A+9]Travelling through, a tunnel u[Cmaj7]nder sea         [G6]
[A+9]You never know if it cracks in half,
[Cmaj7]You're never ever gonna see me.   [G6]
CHORUS
[D]But you can have it all if you l[C]ike            [G]
Y[D]ou can have it all if you [C]like and     [G]
You can pay for it the rest of your life.....a..a..a..a.[A+9].ife         [Cmaj7]      [G6]
[A+9]a..a..a[Cmaj7]..a..ife      [G6]
[A+9]I wouldn't believe your wireless r[Cmaj7]adio             [G6]
[A+9]If I had myself a flying giraffe
Y[Cmaj7]ou'd have one in a box with a window       [G6]

Chorus
[D]But you can have it all if you [C]like          [G]
[D]You can have it all if you[C] like and        [G]
You can pay for it the rest of yourlife.....a..a..a..a.[A+9].ife        [Cmaj7]      [G6]
[A+9]a..a..[Cmaj7]a..a..ife [G6]

(Here's how the electric solo goes)


e  ----------------------------------------------------------------------------10---10------10---12-
B  ------10---12---10-------------------------------10---12---10----12------------12-----------
G  --11-----------------11----9----------------11--------------------------------------------------
D  --------------------------------12-----------------------------------------------------------------
A  ----------------------------------------------------------------------------------------------------
E  ----------------------------------------------------------------------------------------------------


(While the acoustic goes like this:- D,C,G X2)


[Em7]Life in the summers on it's back  [A]
[Em7]You'd have to agree that that's the crac[A]k
[Em7]So take what you want I'm not comin' back         [A]                [G]
Chorus

[D]So you can have it all if you [C]like          [G]
[D]You can have it all if you[C] like         [G]
[D]You can have it all if you[C] like          [G]
[D]You can have it all if you [C]like and       [G]
You can pay for it the rest of your life.....a..a..a..a..[A+9]a..ife       [Cmaj7]      [G6]
[A+9]a..a..a..a..ife [Cmaj7]      [G6]                (Riff1 gets played before life for these 4 lines)
[A+9]a..a..a..a..ife [Cmaj7]      [G6]
[A+9]a..a..a..a..ife [Cmaj7]      [G6]

[G6]   [A+9]                                  
New born riff


e  --------------------------------------------------------------------------------------------------------------
B  -------------------------------------------------------------------------------------------------------------
G  -------------------------------------------------------------------------------------------------------------
D  ---------------------------------------------------------------0---0---0---0---0---------------------------
A  ---------------------------------0---0---0---3---0---3---4------------------------------------------------
E  ---0---0---0---3---0---3---4------------------------------------------------------0---2---3---3---3---3
e  ---------------------------------------------------------------------------------------------------
B  ---------------------------------------------------------------------------------------------------
G  ---------------------------------------------------------------------------------------------------
D  ---------------------------------------------------------------------------------------------------
A  ---------------------------------------------------------------------------------------------------
E  ----3---8---8---8---8---8---6---6---6---6---6---7---7---7---7---7---7---7---7---7---7----



Tabbed by Aled Roberts


END

+--------------------------------------------------------------------------+

| This file is the author's own work and represents their interpretation |
| of the song. You may only use this file for private study, scholarship, |
| or research. |
+--------------------------------------------------------------------------+


Ultimate-Guitar.Com © 2005

Important: The song above is NOT stored on the Chordie server. The original song is hosted at www.ultimate-guitar.com. Chordie works as a search engine and provides on-the-fly formatting. Chordie does not index songs against artists'/composers' will. To remove this song please click here.

Text color:
Chord color:
Chord grids: 
Font size:    
Page size: 

A A+9 C Cmaj7 D Em7 G G6

Login - add to songbook

SHARE PAGE  



You need to log in to post comments