Guitar Tabs, Chords and Lyrics
Major upgrade!! After one year development the new version of Chordie is now online! Please give feedback.


Wiseman  James Blunt



E--6---6-5---5---5-3------------------------------------------------|

B---8-----6---6-----5-----------------------------------------------|
G----7-----7---7-----5----------------------------------------------|
D-------------------------------------------------------------------|
A-------------------------------------------------------------------|
E-------------------------------------------------------------------| X4
[Bm]Go steady on me
[D]wanna tell me what the [A]wiseman said when they
[Em]Came down from heaven
[Bm]Smoked nine till seven
[D]All the s*** that [A]they could find but they
[Em]Couldn't escape from you [Bm]they couldn't be free of you
[D]And now they know there is [A]no way out and they're
[G]Really sorry now for what they've done they were [A]three wisemen just trying
to have some fun

CHORUS
[Am]Look who's [C]alone now
[G]It's not me it's not [D]me
[Am]Those three wise[C]men they've got a
[G]Semi by the [D]sea
[Am]Got to ask your[F]self the question [G]where are you [D]now?
[Am]Got to ask your[F]self the question [G]where are you [D]now?

VERSE 2
Really sorry now they weren't to know
They got caught up in your talent show
With you pernicity little b****** and your fancy dresses
Who just judge each other and try to impress but they
Couldn't escape from you
They couldn't be free of you

And now they now there's no way out and they're
Reall sorry now for what they've done they were three wisemen just trying to have some fun

CHORUS

SOLO
   [Em]        [A]      [Em]       [D]        [Em]      [A]       [G]     [A]         [Am]      [C]                             
E---------------------------------------------------------------------------|
B-----------------------6-6-6-6----------------------5-6-5-4----------4-4---|
G---------3-------------5-5-5-5-------3---------3-4-5-------5--3-3-5-5-5----|
D--3-5-5---3-5---3-5-5----------3-5-5--3-5---3-7----------------------------|
A---------------------------------------------------------------------------|
E---------------------------------------------------------------------------|


[G]         [D]           [Am]      [C]                [G]          [D]           [Am]                              
E---8-6-8-8----------------11-11-11-11-10-10--8-8-6--6-6-8-8-8------11-13-13-|
B6-8------6-4-6-4----4----------------------------------------4--------------|
G-----------------5----5----------------------------------------5------------|
D----------------------------------------------------------------------------|
A----------------------------------------------------------------------------|
E----------------------------------------------------------------------------|


  [C]            [G]                [D]         [Am]   [C]           [G]           [D]                              
E-13-11-10-8--11-13-11-11-8-6-8-8-8-8-------------------------0-6-8-8-8-8-8-|
B--------------------------------------4-------------------4-6--------------|
G---------------------------------------5-------0-2-----0-2-----------------|
D--------------------------------------------0-2-----0-2--------------------|
A-----------------------------------------0-3-------------------------------|
E---------------------------------------------------------------------------|

CHORUS

[Am]          [F]        [G]Where are you [D]now?
[Am]          [F]        [G]Where are you [D]now?
[Am]Got to ask your[F]self the question [G]where are you [D]now?
[Am]Got to ask your[F]self the question [G]where are you [Am]now?

END

+--------------------------------------------------------------------------+

| This file is the author's own work and represents their interpretation |
| of the song. You may only use this file for private study, scholarship, |
| or research. |
+--------------------------------------------------------------------------+


Ultimate-Guitar.Com © 2005

Important: The song above is NOT stored on the Chordie server. The original song is hosted at www.ultimate-guitar.com. Chordie works as a search engine and provides on-the-fly formatting. Chordie does not index songs against artists'/composers' will. To remove this song please click here.

Text color:
Chord color:
Chord grids: 
Font size:    
Page size: 

A Am Bm C D Em F G

Jango Player

Login - add to songbook

SHARE PAGE  



You need to log in to post comments