Guitar Tabs, Chords and Lyrics
Server problems seems to be fixed. Chordie has been experiencing problems with songs disappearing. These issues now seems to be fixed, but still verifying the fix. If you find anything strange, please email admin@chordie.com.



Notice: Undefined index: PATH_INFO in /var/www/chordiepro/chord.pere on line 785

Never Too Late  Three Days Grace



[4/4] Gtr I
Q E E +E E Q +E E E +E E +E E E
|-------------------|-------------------------|
|-------------------|-------------------------|
|-------------------|-------------------------|
|------10-(10)------|-----0-10-(10)-8-(8)-7---|
|----8---------8----|-----------------------8-|
|-8--------------0--|-(0)---------------------|



  [Bbsus2]Q  E  E  +E  E Q    [Dm]+E  E  E  +E  E +E  E E
|-------------------|-------------------------|
|-------------------|-------------------------|
|-------------------|-------------------------|
|------10-(10)------|-----0-10-(10)-8-(8)-7---|
|----8---------8----|-----------------------8-|
|-8--------------0--|-(0)---------------------|



  [Bbsus2]Q  E  E  +E  E Q    [Dm]+E  E  E  +E  E +E  E E   [Am]Q  E  E  +E  E [C5] Q     +W
|-------------------|-------------------------|--------------------|---------||
|-------------------|-------------------------|--------------------|---------||
|-------------------|-------------------------|--------------------|---------||
|------10-(10)------|-----0-10-(10)-8-(8)-7---|------10-(10)---10--|-(10)----||
|----8---------8----|-----------------------8-|----7---------7-10--|-(10)----||
|-8--------------0--|-(0)---------------------|-7--------------10--|-(10)----||



Pre-Chorus
  [Bbsus2]Q  E  E  +E  E Q    [Dm]+E  E  E  +E  E +E  E E
|-------------------|-------------------------|
|-------------------|-------------------------|
|-------------------|-------------------------|
|------10-(10)------|-----0-10-(10)-8-(8)-7---|
|----8---------8----|-----------------------8-|
|-8--------------0--|-(0)---------------------|



  [Bbsus2]Q  E  E  +E  E Q    [Dm]+E  E  E  +E  E +E  E E
|-------------------|-------------------------|
|-------------------|-------------------------|
|-------------------|-------------------------|
|------10-(10)------|-----0-10-(10)-8-(8)-7---|
|----8---------8----|-----------------------8-|
|-8--------------0--|-(0)---------------------|



  [Bbsus2]Q  E  E  +E  E Q    [Dm]+E  E  E  +E  E +E  E E   [Am]Q  E  E  +E  E [C5] Q     +W
|-------------------|-------------------------|--------------------|---------||
|-------------------|-------------------------|--------------------|---------||
|-------------------|-------------------------|--------------------|---------||
|------10-(10)------|-----0-10-(10)-8-(8)-7---|------10-(10)---10--|-(10)----||
|----8---------8----|-----------------------8-|----7---------7-10--|-(10)----||
|-8--------------0--|-(0)---------------------|-7--------------10--|-(10)----||



Verse
  [Bbsus2] Q   E  E  +E   E Q    [Dm]+E   E  E  +E   E  +E   E  E
|----------------------|------------------------------|
|----------------------|------------------------------|
|----------------------|------------------------------|
|--------10-(10)-------|------0-10-(10)--8--(8)--7----|
|------8----------8----|----------------------------8-|
|--8----------------0--|-(0)--------------------------|

|
| Gtr II
| Q E E +E E Q +E E E +E E +E E E
|----------------------|------------------------------|
|--------13-(13)-------|--------13-(13)---------------|
|----------------------|----------------15-(15)-14----|
|-----15---------15----|-----12--------------------15-|
|-13-------------------|------------------------------|
|-------------------0--|-(0)--------------------------|



  [Bbsus2] Q   E  E  +E   E Q    [Dm]+E   E  E  +E   E  +E   E  E
|----------------------|------------------------------|
|----------------------|------------------------------|
|----------------------|------------------------------|
|--------10-(10)-------|------0-10-(10)--8--(8)--7----|
|------8----------8----|----------------------------8-|
|--8----------------0--|-(0)--------------------------|

|
| Q E E +E E Q +E E E +E E +E E E
|----------------------|------------------------------|
|--------13-(13)-------|--------13-(13)---------------|
|----------------------|----------------15-(15)-14----|
|-----15---------15----|-----12--------------------15-|
|-13-------------------|------------------------------|
|-------------------0--|-(0)--------------------------|



  [Bbsus2] Q   E  E  +E   E Q    [Dm]+E   E  E  +E   E  +E   E  E
|----------------------|------------------------------|
|----------------------|------------------------------|
|----------------------|------------------------------|
|--------10-(10)-------|------0-10-(10)--8--(8)--7----|
|------8----------8----|----------------------------8-|
|--8----------------0--|-(0)--------------------------|

|
| Q E E +E E Q +E E E +E E +E E E
|----------------------|------------------------------|
|--------13-(13)-------|--------13-(13)---------------|
|----------------------|----------------15-(15)-14----|
|-----15---------15----|-----12--------------------15-|
|-13-------------------|------------------------------|
|-------------------0--|-(0)--------------------------|



  [Am] Q   E  E  +E   E [C5] Q     +W
|-----------------------|---------||
|-----------------------|---------||
|-----------------------|---------||
|--------10-(10)----10--|-(10)----||
|------7----------7-10--|-(10)----||
|--7----------------10--|-(10)----||

|
| Q E E +E E Q +W


|-----------------------|---------||
|--------13-(13)----13--|-(13)----||
|-------------------12--|-(12)----||
|-----14---------14-10--|-(10)----||
|-12--------------------|---------||
|-----------------------|---------||



Chorus
$
    [D5]Gtr III     [Bb5]
Q. E E E Q +E E +Q E +E E E
||------------------|-----------------------|
||o-----------------|-----------------------|
||------------------|-----------------------|
||---0----0-0----8--|--(8)-8-(8)--8-(8)-8-8-|
||o--0----0-0----8--|--(8)-8-(8)--8-(8)-8-8-|
||---0----0-0----8--|--(8)-8-(8)--8-(8)-8-8-|

|
| Gtr IV
| H. Q +W
||--17--------------|-----------------------|
||o-------------15--|-(15)------------------|
||------------------|-----------------------|
||------------------|-----------------------|
||o-----------------|-----------------------|
||------------------|-----------------------|



  [A5] Q.   E E E [C5] Q     +E   Q.    Q   E  E
|-----------------|------------------------||
|-----------------|-----------------------o||
|-----------------|------------------------||
|--7----7-7---10--|-(10)-10----10--10-10---||
|--7----7-7---10--|-(10)-10----10--10-10--o||
|--7----7-7---10--|-(10)-10----10--10-10---||

|
| H. Q +W
|-15--------------|------------------------||
|-------------13--|-(13)------------------o||
|-----------------|------------------------||
|-----------------|------------------------||
|-----------------|-----------------------o||
|-----------------|------------------------||



  [D5] Q.        E  E  E [Bb5] Q      +E   E +Q      E +E   E  E
|--------------------------|----------------------------|
|--------------------------|----------------------------|
|--------------------------|----------------------------|
|--0---------0--0-----8----|-(8)--8-(8)-----8-(8)--8--8-|
|--0---------0--0-----8----|-(8)--8-(8)-----8-(8)--8--8-|
|--0---------0--0-----8----|-(8)--8-(8)-----8-(8)--8--8-|

|
| E E E E E E E E E E E E E E E E
|-17--13----17-13----17-13-|-----17-13-----17-13--------|
|--------15-------15-------|-15---------15--------15----|
|--------------------------|-------------------------14-|
|--------------------------|----------------------------|
|--------------------------|----------------------------|
|--------------------------|----------------------------|



To Coda
  [A5] Q.        E  E  E [C5] Q       +E   Q.        Q     E  E


|--------------------------|----------------------------|
|--------------------------|----------------------------|
|--------------------------|----------------------------|
|--7---------7--7----10----|-(10)-10--------10----10-10-|
|--7---------7--7----10----|-(10)-10--------10----10-10-|
|--7---------7--7----10----|-(10)-10--------10----10-10-|

|
| E E E E E E E E E E E E E E E E
|-12--------12-------12----|------12--------13----------|
|-----13-------13-------13-|----------13-------13-------|
|--------14-------14-------|--14---------14-------14-15-|
|--------------------------|----------------------------|
|--------------------------|----------------------------|
|--------------------------|----------------------------|



  [Bb5] E  E  E  E  Q    [D5] Q      +E   E +Q      E +E   E  E
|-------------------------|----------------------------|
|-------------------------|----------------------------|
|-------------------------|----------------------------|
|--8--8--8--8--------0----|-(0)--0-(0)-----0-(0)--0--0-|
|--8--8--8--8--------0----|-(0)--0-(0)-----0-(0)--0--0-|
|--8--8--8--8--------0----|-(0)--0-(0)-----0-(0)--0--0-|

|
| E E E E E E E E E E E E E E E E
|-17-13----17-13----17-13-|-----17-13-----17-13-----17-|
|-------15-------15-------|-15---------15--------15----|
|-------------------------|----------------------------|
|-------------------------|----------------------------|
|-------------------------|----------------------------|
|-------------------------|----------------------------|



  [A5] E  E  E  E  Q    [C5] Q     +W
|-----------------------|---------||
|-----------------------|---------||
|-----------------------|---------||
|--7--7--7--7-------10--|-(10)----||
|--7--7--7--7-------10--|-(10)----||
|--7--7--7--7-------10--|-(10)----||

|
| E E E E E E Q +W
|-12-------12-------12--|---------||
|----13-------13--------|-(17)----||
|-------14-------14-----|---------||
|-----------------------|---------||
|-----------------------|---------||
|-----------------------|---------||



Verse II
  [Bbsus2]Gtr IV                 [Dm]
>
W +W
|----------------------|-------------------------------|
|-15-------------------|-(15)--------------------------|
|----------------------|-------------------------------|
|----------------------|-------------------------------|
|----------------------|-------------------------------|
|----------------------|-------------------------------|

|
| Gtr I
| Q E E +E E Q +E E E +E E +E E E
|----------------------|-------------------------------|
|----------------------|-------------------------------|
|----------------------|-------------------------------|
|--------10-(10)-------|-------0-10-(10)--8--(8)--7----|
|------8----------8----|-----------------------------8-|
|--8----------------0--|--(0)--------------------------|

|
| Gtr II
| Q E E +E E Q +E E E +E E +E E E

|----------------------|-------------------------------|
|--------13-(13)-------|---------13-(13)---------------|
|----------------------|-----------------15-(15)-14----|
|-----15---------15----|------12--------------------15-|
|-13-------------------|-------------------------------|
|-------------------0--|--(0)--------------------------|



  [Bbsus2] W                     [Dm] W
|----------------------|------------------------------|
|----------------------|------------------------------|
|----------------------|------------------------------|
|----------------------|------------------------------|
|----------------------|------------------------------|
|----------------------|------------------------------|

|
| Q E E +E E Q +E E E +E E +E E E
|----------------------|------------------------------|
|----------------------|------------------------------|
|----------------------|------------------------------|
|--------10-(10)-------|------0-10-(10)--8--(8)--7----|
|------8----------8----|----------------------------8-|
|--8----------------0--|-(0)--------------------------|

|
| Q E E +E E Q +E E E +E E +E E E
|----------------------|------------------------------|
|--------13-(13)-------|--------13-(13)---------------|
|----------------------|----------------15-(15)-14----|
|-----15---------15----|-----12--------------------15-|
|-13-------------------|------------------------------|
|-------------------0--|-(0)--------------------------|



  [Bbsus2]Gtr I                  [Dm]
Q E E +E E Q +E E E +E E +E E E
|----------------------|------------------------------|
|----------------------|------------------------------|
|----------------------|------------------------------|
|--------10-(10)-------|------0-10-(10)--8--(8)--7----|
|------8----------8----|----------------------------8-|
|--8----------------0--|-(0)--------------------------|

|
| Gtr II
| Q E E +E E Q +E E E +E E +E E E
|----------------------|------------------------------|
|--------13-(13)-------|--------13-(13)---------------|
|----------------------|----------------15-(15)-14----|
|-----15---------15----|-----12--------------------15-|
|-13-------------------|------------------------------|
|-------------------0--|-(0)--------------------------|



  [Am] Q   E  E  +E   E [C5] Q     +W
|-----------------------|---------|
|-----------------------|---------|
|-----------------------|---------|
|--------10-(10)----10--|-(10)----|
|------7----------7-10--|-(10)----|
|--7----------------10--|-(10)----|

|
| Q E E +E E Q +W
|-----------------------|---------|
|--------13-(13)----13--|-(13)----|
|-------------------12--|-(12)----|
|-----14---------14-10--|-(10)----|
|-12--------------------|---------|
|-----------------------|---------|



  [Bbsus2] Q   E  E  +E   E Q    [Dm]+E   E  E  +E   E  +E   E  E
|----------------------|------------------------------|
|----------------------|------------------------------|
|----------------------|------------------------------|
|--------10-(10)-------|------0-10-(10)--8--(8)--7----|
|------8----------8----|----------------------------8-|
|--8----------------0--|-(0)--------------------------|

|
| Q E E +E E Q +E E E +E E +E E E
|----------------------|------------------------------|
|--------13-(13)-------|--------13-(13)---------------|
|----------------------|----------------15-(15)-14----|
|-----15---------15----|-----12--------------------15-|
|-13-------------------|------------------------------|
|-------------------0--|-(0)--------------------------|



  [Bbsus2] Q   E  E  +E   E Q    [Dm]+E   E  E  +E   E  +E   E  E
|----------------------|------------------------------|
|----------------------|------------------------------|
|----------------------|------------------------------|
|--------10-(10)-------|------0-10-(10)--8--(8)--7----|
|------8----------8----|----------------------------8-|
|--8----------------0--|-(0)--------------------------|

|
| Q E E +E E Q +E E E +E E +E E E
|----------------------|------------------------------|
|--------13-(13)-------|--------13-(13)---------------|
|----------------------|----------------15-(15)-14----|
|-----15---------15----|-----12--------------------15-|
|-13-------------------|------------------------------|
|-------------------0--|-(0)--------------------------|



  [Bbsus2] Q   E  E  +E   E Q    [Dm]+E   E  E  +E   E  +E   E  E
|----------------------|------------------------------|
|----------------------|------------------------------|
|----------------------|------------------------------|
|--------10-(10)-------|------0-10-(10)--8--(8)--7----|
|------8----------8----|----------------------------8-|
|--8----------------0--|-(0)--------------------------|

|
| Q E E +E E Q +E E E +E E +E E E
|----------------------|------------------------------|
|--------13-(13)-------|--------13-(13)---------------|
|----------------------|----------------15-(15)-14----|
|-----15---------15----|-----12--------------------15-|
|-13-------------------|------------------------------|
|-------------------0--|-(0)--------------------------|



D.S. al Coda
  [Am] Q   E  E  +E   E [C5] Q     +W
|-----------------------|----------||
|-----------------------|----------||
|-----------------------|----------||
|--------10-(10)----10--|-(10)-----||
|------7----------7-10--|-(10)-----||
|--7----------------10--|-(10)-----||

|
| Q E E +E E Q +W
|-----------------------|----------||
|--------13-(13)----13--|-(13)-----||
|-------------------12--|-(12)-----||
|-----14---------14-10--|-(10)-----||
|-12--------------------|----------||
|-----------------------|----------||



Chorus Cont.
&
  [Bb5]Gtr III           [D5]

E E E E Q Q +E E +Q E +E E E
|-------------------------|----------------------------|
|-------------------------|----------------------------|
|-------------------------|----------------------------|
|--8--8--8--8--------0----|-(0)--0-(0)-----0-(0)--0--0-|
|--8--8--8--8--------0----|-(0)--0-(0)-----0-(0)--0--0-|
|--8--8--8--8--------0----|-(0)--0-(0)-----0-(0)--0--0-|

|
| Gtr IV
| E E E E E E E E E E E E E E E E
|-17-13----17-13----17-13-|-----17-13-----17-13-----17-|
|-------15-------15-------|-15---------15--------15----|
|-------------------------|----------------------------|
|-------------------------|----------------------------|
|-------------------------|----------------------------|
|-------------------------|----------------------------|



  [A5] E  E  E  E  Q    [C5] Q       +E   E  E  E  E  E  E  E
|-------------------------|---------------------------||
|-------------------------|---------------------------||
|-------------------------|---------------------------||
|--7--7--7--7-------10----|-(10)-10-10-10-10-10-10-10-||
|--7--7--7--7-------10----|-(10)-10-10-10-10-10-10-10-||
|--7--7--7--7-------10----|-(10)-10-10-10-10-10-10-10-||

|
| E E E E E E E E E E E E E E E E
|-12-------12-------12----|------12-------13-------12-||
|----13-------13-------13-|---------13-------13-------||
|-------14-------14-------|--14--------14-------14----||
|-------------------------|---------------------------||
|-------------------------|---------------------------||
|-------------------------|---------------------------||



Bridge
    [Bb5]Gtrs III, IV                      [F5]          [C5]
E E E E Q E E E E Q E E E E Q. Q. Q +E E E +E E +E E E 3x
||-----------------|----------------|--------------|-------------------------||
||o----------------|----------------|--------------|------------------------o||
||-----------------|----------------|-----------5--|-(5)-5-5-(5)-5-(5)-5-5---||
||--8-8-8-8----8-8-|-8-8----8-8-8-8-|-3----3----5--|-(5)-5-5-(5)-5-(5)-5-5---||
||o-8-8-8-8----8-8-|-8-8----8-8-8-8-|-3----3----3--|-(3)-3-3-(3)-3-(3)-3-3--o||
||--8-8-8-8----8-8-|-8-8----8-8-8-8-|-3----3-------|-------------------------||



  [Bb5]Q  Q  Q  Q    Q  Q  Q  Q    [A5]E E E E E E [C5] Q     +W
|-------------|-------------|-----------------|---------||
|-------------|-------------|-----------------|---------||
|-------------|-------------|-----------------|---------||
|-8--8--8--8--|-8--8--8--8--|-7-7-7-7---x-10--|-(10)----||
|-8--8--8--8--|-8--8--8--8--|-7-7-7-7---x-10--|-(10)----||
|-8--8--8--8--|-8--8--8--8--|-7-7-7-7---x-10--|-(10)----||



Guitar Break
  [Bbsus2]Gtr I                [Dm]              [Bbsus2]                     [Dm]
Q E E +E E Q +W Q E E +E E Q +W
|--------------------|-------------|--------------------|---------|
|--------------------|-------------|--------------------|---------|
|--------------------|-------------|--------------------|---------|
|------10-(10)---12--|-(12)--------|------10-(10)---12--|-(12)----|
|----8---------------|-------------|----8---------------|---------|
|-8------------0-----|-------------|-8------------0-----|---------|



  [Bbsus2]Q  E  E  +E  E  Q    [Dm] +W           [Bb] W           +W
|--------------------|-------------|-----------|---------||
|--------------------|-------------|-----------|---------||
|--------------------|-------------|-----------|---------||
|------10-(10)---12--|-(12)--------|-12--------|-(12)----||
|----8---------------|-------------|--8--------|--(8)----||
|-8------------0-----|-------------|--8--------|--(8)----||



Out Chorus
    [D5]Gtr III     [Bb5]
Q. E E E Q +E E +Q E +E E E
||------------------|-----------------------|
||o-----------------|-----------------------|
||------------------|-----------------------|
||---0----0-0----8--|--(8)-8-(8)--8-(8)-8-8-|
||o--0----0-0----8--|--(8)-8-(8)--8-(8)-8-8-|
||---0----0-0----8--|--(8)-8-(8)--8-(8)-8-8-|

|
| Gtr IV
| H. Q +W
||--17--------------|-----------------------|
||o-------------15--|-(15)------------------|
||------------------|-----------------------|
||------------------|-----------------------|
||o-----------------|-----------------------|
||------------------|-----------------------|



  [A5] Q.   E E E [C5] Q     +E   Q.    Q   E  E
|-----------------|------------------------||
|-----------------|-----------------------o||
|-----------------|------------------------||
|--7----7-7---10--|-(10)-10----10--10-10---||
|--7----7-7---10--|-(10)-10----10--10-10--o||
|--7----7-7---10--|-(10)-10----10--10-10---||

|
| H. Q +W
|-15--------------|------------------------||
|-------------13--|-(13)------------------o||
|-----------------|------------------------||
|-----------------|------------------------||
|-----------------|-----------------------o||
|-----------------|------------------------||



  [D5] Q.        E  E  E [Bb5] Q      +E   E +Q      E +E   E  E
|--------------------------|----------------------------|
|--------------------------|----------------------------|
|--------------------------|----------------------------|
|--0---------0--0-----8----|-(8)--8-(8)-----8-(8)--8--8-|
|--0---------0--0-----8----|-(8)--8-(8)-----8-(8)--8--8-|
|--0---------0--0-----8----|-(8)--8-(8)-----8-(8)--8--8-|

|
| E E E E E E E E E E E E E E E E
|-17--13----17-13----17-13-|-----17-13-----17-13--------|
|--------15-------15-------|-15---------15--------15----|
|--------------------------|-------------------------14-|
|--------------------------|----------------------------|
|--------------------------|----------------------------|
|--------------------------|----------------------------|



  [A5] Q.        E  E  E [C5] Q       +E   Q.        Q     E  E
|--------------------------|----------------------------|
|--------------------------|----------------------------|
|--------------------------|----------------------------|
|--7---------7--7----10----|-(10)-10--------10----10-10-|
|--7---------7--7----10----|-(10)-10--------10----10-10-|
|--7---------7--7----10----|-(10)-10--------10----10-10-|

|
| E E E E E E E E E E E E E E E E

|-12--------12-------12----|------12--------13----------|
|-----13-------13-------13-|----------13-------13-------|
|--------14-------14-------|--14---------14-------14-15-|
|--------------------------|----------------------------|
|--------------------------|----------------------------|
|--------------------------|----------------------------|



  [Bb5] E  E  E  E  Q    [D5] Q      +E   E +Q      E +E   E  E
|-------------------------|----------------------------|
|-------------------------|----------------------------|
|-------------------------|----------------------------|
|--8--8--8--8--------0----|-(0)--0-(0)-----0-(0)--0--0-|
|--8--8--8--8--------0----|-(0)--0-(0)-----0-(0)--0--0-|
|--8--8--8--8--------0----|-(0)--0-(0)-----0-(0)--0--0-|

|
| E E E E E E E E E E E E E E E E
|-17-13----17-13----17-13-|-----17-13-----17-13-----17-|
|-------15-------15-------|-15---------15--------15----|
|-------------------------|----------------------------|
|-------------------------|----------------------------|
|-------------------------|----------------------------|
|-------------------------|----------------------------|



  [A5] E  E  E  E  Q    [C5] Q       +E   E  E  E  E  E  E  E
|-------------------------|---------------------------|
|-------------------------|---------------------------|
|-------------------------|---------------------------|
|--7--7--7--7-------10----|-(10)-10-10-10-10-10-10-10-|
|--7--7--7--7-------10----|-(10)-10-10-10-10-10-10-10-|
|--7--7--7--7-------10----|-(10)-10-10-10-10-10-10-10-|

|
| E E E E E E E E E E E E E E E E
|-12-------12-------12----|------12-------13-------12-|
|----13-------13-------13-|---------13-------13-------|
|-------14-------14-------|--14--------14-------14----|
|-------------------------|---------------------------|
|-------------------------|---------------------------|
|-------------------------|---------------------------|



  [Bb5] E  E E E Q  [D5] Q     +E  E +Q   E +E  E E
|------------------|-----------------------|
|------------------|-----------------------|
|------------------|-----------------------|
|--8--8-8-8-----0--|--(0)-0-(0)--0-(0)-0-0-|
|--8--8-8-8-----0--|--(0)-0-(0)--0-(0)-0-0-|
|--8--8-8-8-----0--|--(0)-0-(0)--0-(0)-0-0-|

|
| H. Q +W
|-17---------------|-----------------------|
|--------------15--|-(15)------------------|
|------------------|-----------------------|
|------------------|-----------------------|
|------------------|-----------------------|
|------------------|-----------------------|



  [A5] E  E E E Q  [C5] Q     +E   E  E  E  E  E  E  E
|------------------|---------------------------|
|------------------|---------------------------|
|------------------|---------------------------|
|--7--7-7-7----10--|-(10)-10-10-10-10-10-10-10-|
|--7--7-7-7----10--|-(10)-10-10-10-10-10-10-10-|
|--7--7-7-7----10--|-(10)-10-10-10-10-10-10-10-|

|
| H. Q +W


|-15---------------|---------------------------|
|--------------13--|-(13)----------------------|
|------------------|---------------------------|
|------------------|---------------------------|
|------------------|---------------------------|
|------------------|---------------------------|



  [Bb5] E  E E E Q  [D5] Q     +E  E +Q   E +E  E E   [A5] E  E E E Q  [C5] Q     +W
|------------------|-----------------------|------------------|---------||
|------------------|-----------------------|------------------|---------||
|------------------|-----------------------|------------------|---------||
|--8--8-8-8-----0--|--(0)-0-(0)--0-(0)-0-0-|--7--7-7-7----10--|-(10)----||
|--8--8-8-8-----0--|--(0)-0-(0)--0-(0)-0-0-|--7--7-7-7----10--|-(10)----||

Important: The song above is NOT stored on the Chordie server. The original song is hosted at www.ultimate-guitar.com. Chordie works as a search engine and provides on-the-fly formatting. Chordie does not index songs against artists'/composers' will. To remove this song please click here.

Text color:
Chord color:
Chord grids: 
Font size:    
Page size: 

A5 Am Bb Bb5 Bbsus2 C5 D5 Dm F5

Login - add to songbook

SHARE PAGE  



You need to log in to post comments