Guitar Tabs, Chords and Lyrics
Update 25:10. 13:00. Site is back up running again. Songbooks are recovered. Woring on getting search back up..



Notice: Undefined index: PATH_INFO in /var/www/chordiepro/chord.pere on line 787

I Wanna Sing That Rock N Roll  Gillian Welch



-------------

[G]                                     
e|-------------------------------------------------------------------------|
B|-------------------------------------------------------------------------|
G|------0------------------0------------0-2----0---------------------------|
D|----0---0-------------0-----0-------------------0h2-0--------------------|
A|------------0--2----------------------------------------3---2------------|
E|--/3-----/3--------/3------------/3--------------------------------------|



[G]I wanna sing that [C]rock and [G]roll,
I want to electri[A]fy my [D]soul,
Cause [G]everybody been making a shout,
So [C]big and loud, been drownin' me out,
[G]I want to sing that [D]rock and [G]roll.
[Em]I want to reach that [C]glory [G]land,
[D]I want to shake my [A]Saviour's [D]hand,[D7]
And [G]I wanna sing that [C]rock and [G]roll,
I want to electri[A]fy my [D]soul,
Cause [G]everybody been making a shout,
So [C]big and loud, been drownin' me out,
[G]I wanna sing that [D]rock and [G]roll.
[Em]I been a traveling [C]near and [G]far,
But [D]I want to lay down my [A]old [D]guitar. [D7]
And [G]I wanna to sing that [C]rock and [G]roll,
I want to electri[A]fy my [D]soul,
Cause [G]everybody been making a shout,
So [C]big and loud, been drownin' me out,
[G]I wanna sing that [D]rock and [G]roll.
SOLO


            [Em]                        [C]               [G]                            
e|------0-0-0-0-------------/5p3-|--0-0---------------------------------|
B|----3/5-5-5-3------------------|---4----------------------------------|
G|-----------------4/2p0---------|-----5-2-----2/3p0--------------------|
D|-------------------------------|----------5-------------0-------------|
A|-------------------------------|---------------------------2p0--------|
E|-------------------------------|--------------------------------3-----|

     [D]                                [A]                   [D]                       
e|-------------------------------|--------------------------------------|
B|---3--3--3--3--3--3--3--3------|--------------------------------------|
G|---2--2--2--4--5--4--2--2------|--------------------------------------|
D|---0--0--0--0--0--0--0--4------|----------------------0--2--3--4------|
A|-------------------------------|----0--2--3--4------------------------|
E|-------------------------------|--------------------------------------|

  [G]                               [C]                                              
e|-------------------------------|--------------------------------------|
B|-------------------------------|--------------------------------------|
G|-------0---0----0--0--0--------|----3-3-3-3----3-3-3-3----------------|
D|----/5---5---5--3--3--3--------|----2-2-2-2----1-1-1-1----------------|
A|-------------------------------|--------------------------------------|
E|-------------------------------|--------------------------------------|

[G]                                  [D]                       [G]                      
e|---------------------------3-3-|---3-1--------------------------------|
B|--------0-----0-----0----------|-------3-1----------------------------|
G|-----3-----3-----3-------------|-----------3-0------------------------|
D|-------------------------------|--------------------------------------|
A|-------------------------------|----------------1h2-------------------|
E|-------------------------------|-----------------------3--------------|

[Em]I been a traveling[C] near a[G]nd far,
Bu[D]t I want [A]to[D] lay down my old guitar.
[G]I wanna sing[C] t[G]hat rock and roll,
I want to el[A]ectrify my [D]soul,
[G]Cause everybody been making a shout,
[C]So big and loud, been drownin' me out,
[G]I wanna sing that[D] rock and roll.
[G]I wanna sing th[D]at rock and roll. [G]
END

+--------------------------------------------------------------------------+

| This file is the author's own work and represents their interpretation |
| of the song. You may only use this file for private study, scholarship, |
| or research. |
+--------------------------------------------------------------------------+


Ultimate-Guitar.Com © 2005

Important: The song above is NOT stored on the Chordie server. The original song is hosted at www.ultimate-guitar.com. Chordie works as a search engine and provides on-the-fly formatting. Chordie does not index songs against artists'/composers' will. To remove this song please click here.

Text color:
Chord color:
Chord grids: 
Font size:    
Page size: 

A C D D7 Em G

Login - add to songbook

SHARE PAGE  



You need to log in to post comments