Guitar Tabs, Chords and Lyrics
Major upgrade!! After one year development the new version of Chordie is now online! Please give feedback.


The Beauty of Gray   Live



_____________________________
<<<<<<<<<<<--Intro-->>>>>>>>>>>
~~~~~~~~~~~~~~~~~~~~~~~~~~~~~
Solo Rhythm Guitar and Bass. Play 4 times:
Chord : Bm Bm r r F#==================
| | | | | | | |
B----------------------------|-------------------------|
a----------------------------|-------------------------|
s-------2-----2-----R========|=========================|
s----------------------------|-------------------------|

_____________________________
<<<<<<<<<<<--Verse-->>>>>>>>>>>
~~~~~~~~~~~~~~~~~~~~~~~~~~~~~
Play Intro riff 4 times.
_________________________________
<<<<<<<<<<<--Prechorus-->>>>>>>>>>>
~~~~~~~~~~~~~~~~~~~~~~~~~~~~~~~~~
Play the following 4 times:
Chord : G x x G x x D x x A x x
| | | | | | | |
B------------------------------|------------------------|
a------------------------------|------------------------|
s----------------------------5-|-5----------------------|
s-------3--------3--3----------|----------5--5--------3-|

^
     4th time omit------------------------------------^

then play:
Chord : C x x C x x C x x C x x C x x C x x C x x C x x
| | | | | | | |
B----------------------------------|-----------------------------|
a----------------------------------|-----------------------------|
s-------3------3------3------3-----|-3------3------3------3------|
s----------------------------------|-----------------------------|

______________________________
<<<<<<<<<<<--Chorus-->>>>>>>>>>>
~~~~~~~~~~~~~~~~~~~~~~~~~~~~~~
1st and second chorus, play following line once:
3rd chorus, play it three times:
Chords: Bm Bm Bm Bm Em Em Em Em Bm Bm Bm Bm F# F# F# F#
| | | | | | | | | | | | | | | |
B----------------------|----------------|----------------|----------------|
a----------------------|----------------|----------------|----------------|
s-------2---2---2---2--|----------------|-2---2---2---2--|----------------|
s----------------------|-0---0---0---0--|----------------|-2---2---2---2--|

Chords: Bm Bm Bm Bm Em Em Em Em D A
G----------------------|----------------|---------232----|-0--------------|
u----------------------|----------------|-------3-----3--|-2--------------|
i---------rest---------|------ditto-----|-----2----------|-2--------------|
t----------------------|----------------|-0-------------0|-2--------------|
a----------------------|----------------|----------------|-0--------------|
r----------------------|----------------|----------------|----------------|

| | | | | | | | | | | | | | | |
B----------------------|----------------|----------------|----------------|
a----------------------|----------------|-0--------------|----------------|
s-------2---2---2---2--|----------------|----------------|-0--------------|
s----------------------|-0---0---0---0--|----------------|----------------|

^
^
Second and third chorus, add the ^ following here:
            [D]                  [A]                                                  
          G---------232-----|-----------------|
          u-------3-----3---|---------232-----|
          i-----2-----------|-------2-----2---|
          t-0-------------0-|-----2---------0-|
          a-----------------|-0---------------|
          r-----------------|-----------------|

| | | | | | | |
          B-----------------|-----------------|
          a-0---------------|-----------------|
          s-----------------|-0---------------|
          s-----------------|-----------------|

______________________________
<<<<<<<<<<<--Bridge-->>>>>>>>>>>
~~~~~~~~~~~~~~~~~~~~~~~~~~~~~~
Play intro riff 2 times.
_____________________________
<<<<<<<<<<<--Theme-->>>>>>>>>>>
~~~~~~~~~~~~~~~~~~~~~~~~~~~~~
Play twice (second time play 'til fade):
Chords: Bm x x Bm x x Em x x Em x x D x x D x x A x x A x x
| | | | | | | | | | | | | | | |
B----------------------|----------------|----------------|----------------|
a----------------------|----------------|----------------|----------------|
s-------2-----2-2------|---------------5|-5-----5-5------|----------------|
s---------------------0|-0-----0-0------|---------------5|-5-----5-5------|

_________________________________
<<<<<<<<<<<--Interlude-->>>>>>>>>>>
~~~~~~~~~~~~~~~~~~~~~~~~~~~~~~~~~
Play 3 times:
G------------------|---------0=====--|------------------|---------0=====--|
u------------------|-------0---------|------------------|-------0---------|
i------------------|---0-------------|------------------|---0-------------|
t------0-----0-----|-----------------|------0-----0-----|-----------------|
a----2-----0-------|-----------------|----2-----0-------|-----------------|
r--3-----2-----0===|================-|--3-----2-----0===|================-|

| | | | | | | | | | | | | | | |
B------------------|-----------------|------------------|-----------------|
a------------------|-----------------|------------------|-------0-2-2-0---|
s------------------|-----------------|------------------|---2-------------|
s--3-----2-----0===|================-|--3-----2-----0===|==---------------|

then play:
G------------------|---------0=====--|--------------0===|================-|
u------------------|-------0---------|--0---------------|-----------------|
i------------------|---0-------------|--------2---------|-----------------|
t------0-----0-----|-----------------|------------------|-----------------|
a----2-----0-------|-----------------|------------------|-----------------|
r--3-----2-----0===|================-|------------------|-----------------|

| | | | | | | | | | | | | | | |
B------------------|-----------------|-/4-----2---------|-----------------|
a------------------|-----------------|------------------|-----------------|
s------------------|-----------------|--------------2===|================-|
s--3-----2-----0===|================-|------------------|-----------------|

Transcribed by Michael Gunter
Questions, comments, TAB requests, marriage proposals, death threats,
priase, or hate mail? Contact me at:
BAND: Live
SONG: Beauty Of Grey
TABBED BY: el sancco (sancco@hotmail.com)
This is my first actual chord tab, so bear with me. This song
is played half a step down (Eb Ab Db Gb Bb Eb). All the riffs
you need are here. Also, the tabs are at the bottom. Enjoy.
INTRO:
------

[Bm]    [F#]   VERSE:
------

[Bm]If I told you he was your [F#]brother
[Bm]We could reminisce then you would [F#]go about your day
[Bm]If I said you ought to [F#]give him some of your water
You'd [Bm]shake your canteen and walk a[F#]way
PRE-CHORUS:
-----------

This [G]perception that divides you from [D]him[A]
Is a [G]lie -- for some [D]reason you [A]never asked [G]why
This is [D]not a black and [A]white [G]world
You can't [D]afford to be[A]lieve in your [C]side
CHORUS:
-------

This is [Bm]not a black and white [Em]world
To be [Bm]alive I say that the colors must [F#]swirl
And I [Bm]believe that maybe to[Em]day
We will [D]all get to appreci[A]ate the beauty of grey[Bm] [F#]
INTERLUDE:
----------

The beauty of [Bm]grey[Em]
The beauty of [D]grey[A]
BRIDGE:
-------

     [G]      [D/F#]      [Em]                                                               
Db|------0-----0---|
Ab|----2-----0-----| Play x7
Eb|--3-----2-----0-|

     [G]   [D/F#]     [Bm]                                                                   
Db|-------------|
Ab|----------2--|
Eb|--3---2------|

Look into your eyes
No daylight
New day now
CHORDS:
-------

     [Bm]     [F#]     [G]     [D]     [A]     [C]     [Em]    [D/F#]                                         
Eb|--2----2----3----2----0----0----0---------|
Bb|--3----2----3----3----2----1----0----3----|
Gb|--4----3----0----2----2----0----0----2----|
Db|--4----4----0----0----2----2----2----0----|
Ab|--2----4----2---------0----3----2----x----|
Db|-------2----3-------------------0----2----|
---------------------------------------------

Transcribed By SANCCO (sancco@hotmail.com)
---------------------------------------------


Important: The song above is NOT stored on the Chordie server. The original song is hosted at www.xguitar.com. Chordie works as a search engine and provides on-the-fly formatting. Chordie does not index songs against artists'/composers' will. To remove this song please click here.

Text color:
Chord color:
Chord grids: 
Font size:    
Page size: 

A Bm C D D/F# Em F# G

Login - add to songbook

SHARE PAGE  



You need to log in to post comments