Guitar Tabs, Chords and Lyrics
Major upgrade!! After one year development the new version of Chordie is now online! Please give feedback.


Tell Me Why  Neil Young



E|---------0---                                


B|---------1---                                


G|---------0---                                


D|---------2---                                


A|---0-2-3-3---                                


E|-3-----------                                

[C] Sailing heartships through [D]   Broken harbours
[Am7]Out on the waves  In the n[G]ight
[C] Still the searcher must Ride the dark horse
R[Am7]acing along  In his fr[G]ight
CHORUS:
[D] Tell me [Am7]why  [C]   [G]  [C]  [G]  [D]
Tell me [Am7]why   [C]    [G]
Is it [Gmaj7]hard to make arrangements with your[C]self
When you're [D]old enough to re[C]pay
But [Bm]young enough to [Em]sell
INSTRUMENTAL:
E|-------0-----0-----0-------2---2---2-------0-----0---0--
B|-------1-----1-----1-------3---3---3-------1-----1---1--
G|-------0-----0-0H2-2-0-----2---2---2-------0-----0---0--
D|-------2-0H2-2---------2-0-0---0-0-0-------2-0H2-2-0-0--
A|-0-2-3-3---------------------0-------3-2-0-0-----0------
E|--------------------------------------------------------
E|---------3-------------3---
B|---------0-------------0---
G|---------0---------0---0---
D|-----0---0-----0H2-----0---
A|-0H2-----2-0H2---------2---
E|-------3-3-----------3-3---      

Tell me lies later Come and see me
I'll be around for a while
I am lonely but You can free me
All in the way that you smile
CHORDS:
   [C]    [D]    [G]    [Am7]     [Gmaj7]       [Bm]    [Em]                                  
E|-0---2---3----0-----2-----2---0
B|-1---3---0----1-----0-----3---0
G|-0---2---0----0-----0-----4---0
D|-2---0---0----2-----0-----4---2
A|-3-------2----0-----2-----2---2
E|---------3----------3---------0  


Important: The song above is NOT stored on the Chordie server. The original song is hosted at www.xguitar.com. Chordie works as a search engine and provides on-the-fly formatting. Chordie does not index songs against artists'/composers' will. To remove this song please click here.

Text color:
Chord color:
Chord grids: 
Font size:    
Page size: 

Am7 Bm C D Em G Gmaj7

Jango Player

Login - add to songbook

SHARE PAGE  




You need to log in to post comments