Guitar Tabs, Chords and Lyrics
Server problems seems to be fixed. Chordie has been experiencing problems with songs disappearing. These issues now seems to be fixed, but still verifying the fix. If you find anything strange, please email admin@chordie.com.



Notice: Undefined index: PATH_INFO in /var/www/chordiepro/chord.pere on line 785

Time Bomb  Rancid



   [Bm]    [Emaj]     [Bm]     [E]         
e|--------------------------------|
B|--------------3----------55-5-3-|
G|--4-4-4-----------4-4-4---------|
D|---------22-2-------------------|
A|--------------------------------|
E|--------------------------------|

VERSE:
If you [Bm]wanna make a move then you [E]better come in
It's just the [Bm]ability to reason that [E]wears so thin
[Bm]Living and dying and the [E]stories that are true
[Bm]Secret to a good life's [E]knowing when you're through
CHORUS:
[A]Black coat, white [D]shoes, black hat, Cadi[E]llac, yeah, the [D]boy's a time bomb
[A]Black coat, white [D]shoes, black hat, Cadi[E]llac, yeah, the [D]boy's a time bomb
VERSE:
Well, he's [Bm]back in the hole where they [E]got him living like a rat
[Bm]But he's smarter than [E]that, nine lives like a cat
?[Bm]Ten years old? they take him [E]to the youth authority home
[Bm]First thing you learn: you got to [E]make it in this world alone
(CHORUS) (Black coat, white shoes...)
VERSE:
[Bm]Now he's gotten out, he's gotten [E]free, he's gotta go, got a car
[Bm]He's 21 years old, he's [E]runnin' numbers from the bar
[Bm]His pager's beepin',[E] he's gettin' deep in
What[Bm]ever he can move on in, you [E]know that kid's a creepin' in
(CHORUS) (Black coat, white shoes...)
[Emaj] ...The boy's a time bomb
SOLO:
3~~: Tremolo pick that string
    [Bm]     [E]         [Bm]     [E]         [Bm]     [E]         [Bm]            [E]                    
e|-------------------------------------------------------------------|
B|----------3~~-2---------3~~-2---------3~~-2-3-3-2-3-3-2-3-3-2-3-3--|
G|--4--2-4--------4--2-4--------4--2-4-------------------------------|
D|-------------------------------------------------------------------|
A|-------------------------------------------------------------------|
E|-------------------------------------------------------------------|

Organ part transcribed for guitar:
    [A]         [D]        [E]      [D]          [A]            [D]                [E]   [D]          
e|--5----5---4-------------------------------------------------0-0---|
B|-----7---7----7--5---2-2-3-3-3-2-0-----2---3-2-----3-2-3-2-3-------|
G|-----------------------------------2-----2-----2-------------------|
D|-------------------------------------------------------------------|
A|-------------------------------------------------------------------|
E|-------------------------------------------------------------------|

VERSE:
[Bm]Tears come from the razor that's been [E]tattooed below his eye
[Bm]His mother cries, she knows that [E]he is strong enough to die
[Bm]He's rollin' in the Cadi[E]llac, it's midnight, sunroof is down
[Bm]Three shots ring out, the hero's [E]dead, the new king is crowned
(CHORUS) (x2) (Black coat, white shoes...)
[Emaj] ...Ooh...time bomb[A] [A] [A]

Important: The song above is NOT stored on the Chordie server. The original song is hosted at www.xguitar.com. Chordie works as a search engine and provides on-the-fly formatting. Chordie does not index songs against artists'/composers' will. To remove this song please click here.

Text color:
Chord color:
Chord grids: 
Font size:    
Page size: 

A Bm D E Emaj

Jango Player

Login - add to songbook

SHARE PAGE  




You need to log in to post comments