Chordie logo


Ground On Down   Ben Harper


e---------------------------------------------------------







C----12~~----0-h-2-/-3-------5~~~--------------10-/-11~~--







G----12~~----0-h-2-/-3---0---5~~~----------0---10-/-11~~--


C----12~~----0-h-2-/-3---0---5~~~----------0---10-/-11~~--


G---------------------------------------------------------


C---------------------------------------------------------


e---------------------------------------------------------


C---~~12~~-~-~~---------12-----10-/-12-/-9----------------


G---~~12~~-~-~~--------12------10-/-12-/-9----------------


C---~~12~~-~-~~-------12-------10-/-12-/-9----------------


G-------------------12---------10-/-12-/-9----------------


C---------------------------------------------------------


e-------------------------------------------------


C-------------10-----9-/-10-/-7-----7-------------


G-----------10-------9-/-10-/-7-----7-------------


C----------10--------9-/-10-/-7-----7-------------


G-------10-----------9-/-10-/-7-----7-------------


C-------------------------------------------------


e---------------------------------------------------------


C----12~~----0-h-2-/-3-------5~~~--------------10-/-11~~--


G----12~~----0-h-2-/-3---0---5~~~----------0---10-/-11~~--


C----12~~----0-h-2-/-3---0---5~~~----------0---10-/-11~~--


G---------------------------------------------------------


C---------------------------------------------------------


e-------------------------------------------------


C-------------------------------------------------


G-------------------------------------------------


C-------------------------------------------------


G-------------------------------------------------


C-------12-\-\-\-\-\-\-\-\-\-\-\-\-\-1------------


e-------------------------------------------------


C-------------------------------------------------


G-------------------------------------------------


C-------------------------------------------------


G-------------------------------------------------


C-------1~~~~~~~~~~~~~~~~~~~~~~~~~~~~~~~~~~-------


e-------------------------------------------------


C-------------------------------------------------


G-X-X-X--X--X---X-X-X--X---X-X--X-X--0---10-/-11~~


C-X-X-X--X--X---X-X-X--X---X-X--X-X--0---10-/-11~~


G-X-X-X--X--X---X-X-X--X---X-X--X-X--0---10-/-11~~


C-X-X-X--X--X---X-X-X--X---X-X--X-X---------------


E---------------------------------------------------


C---------------------------------------------------


G---5-------3--3-----2-----2------------------------


C-------0-----------------------------3---3--5--5---


G---------------------------------------------------


C---------------------------------------------------


E---------------------------------------------------


C---------------------------------------------------


G-------------------5~~~-------3--3-----2-----2-----


C--------------------------0------------------------


G---5~~~~~~-----------------------------------------


C---------------------------------------------------


E---------------------------------------------------


C---------------------------------------------------


G---------------------------------------------------


C---3---3------3~~~~~---------------3-/-/-5---------


G---------------------------------------------------


C---------------------------------------------------


E---------------------------------------------------


C---------------------------------------------------


G---------------------------------------------------


C---5~~--/-7-~-~-~------7--7---8~~---8-\-7--7--7-\5-


G---------------------------------------------------


C---------------------------------------------------


Important: The song above is NOT stored on the Chordie server. The original song is hosted at flarere.free.fr. Chordie works as a search engine and provides on-the-fly formatting. Chordie does not index songs against artists/composers will. To remove this song please click here.

This song is displayed as text-only. Transposing and tuning is only available for chordpro-songs.

Login - add to songbook

Rating click stars to rate

Layout
Accuracy

SHARE PAGE  




You need to log in to post comments